Song name
# A B C D E F G H I J K L M N O P Q R S T U V W X Y Z

The Dangerous Summer - The Permanent Rain Acoustic tab

The acoustic version of The Permanent Rain by The Dangerous Summer
Should be pretty accurate. Only problem is the second part of the bridge. Any 
input on that is greatly welcomed!

D Tuning

Intro/Verse:
e|-------------------------------------------------------|
B|-------------------------------------------------------|
G|-------0-----------0---------7----------7--------------| x7
D|----10----10----10---10---10---10----10---10-----------|
A|--8-----------0---------10---------10------------------|
E|-------------------------------------------------------|

Chorus: (Some alternative picking on last chords)
e|-------------------------------------------------------|
B|-------------------------------------------------------|
G|-------------------------------------------------------| x4
D|--3-3--7-7--5-5-5-5------------------------------------|
A|--3-3--7-7--5-5-5-5------------------------------------|
E|--1-1--5-5--3-3-3-3------------------------------------|

Intro/Verse:
e|-------------------------------------------------------|
B|-------------------------------------------------------|
G|-------0-----------0---------7----------7--------------| x4
D|----10----10----10---10---10---10----10---10-----------|
A|--8-----------0---------10---------10------------------|
E|-------------------------------------------------------|


Chorus: (Some alternative picking on last chords)
e|-------------------------------------------------------|
B|-------------------------------------------------------|
G|-------------------------------------------------------| x4
D|--3-3--7-7--5-5-5-5------------------------------------|
A|--3-3--7-7--5-5-5-5------------------------------------|
E|--1-1--5-5--3-3-3-3------------------------------------|

Bridge: (Part 1) Let these ring out a little.
e|-------------------------------------------------------|
B|-------------------------------------------------------|
G|--------5---5---5---5---5---5---5---5------------------|
D|--3~----5---5---5---5---5---5---5---5------------------|
A|--3~--------3---------------3--------------------------|
E|--1~----5-------3---3---5-------3---3------------------|

(Part 2) Here is where the strumming is different.
I do not know the pattern, so if you have any help, that would be great! :]
e|-------------------------------------------------------|
B|-------------------------------------------------------|
G|--------5---5---5---5----------------------------------|
D|--------5---5---5---5----------------------------------|
A|------------3------------------------------------------|
E|--------5-------3---3----------------------------------|


Chorus/Outro: (Some alternative picking on last chords)
e|-------------------------------------------------------|
B|-------------------------------------------------------|
G|-------------------------------------------------------| x8
D|--3-3--7-7--5-5-5-5------------------------------------|
A|--3-3--7-7--5-5-5-5------------------------------------|
E|--1-1--5-5--3-3-3-3------------------------------------|

End on:
e|----------------------|
B|----------------------|
G|----------------------|
D|--3~------------------|
A|--3~------------------|
E|--1~------------------|

And that's it!
Tap to rate this tab
 
# A B C D E F G H I J K L M N O P Q R S T U V W X Y Z