Song name
# A B C D E F G H I J K L M N O P Q R S T U V W X Y Z

The Dangerous Summer - Where I Want To Be tab



-------------------------------------------------------------------------------
			     Where I Want To Be - The Dangerous Summer
-------------------------------------------------------------------------------
Tabbed by: Tim Chun
Email:timchun@live.com

Tuning: One Step Down All
 
(Intro/verse)	listen for strum, rhythm, and pattern
Guitar 1
   x3  x3  x8				  		.......Winter made things...
e|---------------------------------------------------------------------------|
B|---------------------------------------------------------------------------|
G|-4---4---4---4---4---4---4---4---4---4---4---4---4-----------4-------------|
D|-4---4---4---4---4---4---4---4---4---4---4---4---4-----------4-------------|
A|-2---2---2---2---2---2---2---2---2---2---2---2---4-----------2-------------|
E|-4---0---x---4---0---x---4---0---x---4---0---x---x-----------2-------------|

Guitar 2 (delay effect)
e|---------------------------------------------------------------------------|
B|---------------------------------------------------------------------------|
G|-------88888888-------88888-66-44h6----------------------------------------|
D|---4h6-------------4h6-----------------------------------------------------|
A|---------------------------------------------------------------------------|
E|---------------------------------------------------------------------------|

When theres something in your face...
Guitar 1
e|---------------------------------------------------------------------------|
B|---------------------------------------------------------------------------|
G|-4----4----4---4----4---4----4---------------------------------------------|
D|-4----4----4---4----4---4----4---------------------------------------------|
A|-2----2----2---2----2---2----2---------------------------------------------|
E|-4----0----x---2----4---0----2---------------------------------------------|

Guitar 2
e|---------------------------------------------------------------------------|
B|---------------------------------------------------------------------------|
G|---------------------------------------------------------------------------|
D|------9--9----9--9----6--6-------------------------------------------------|
A|---55---5---55--5---44--4--------------------------------------------------|
E|---------------------------------------------------------------------------|


Bridge... (I wanna take those steps)
Guitar 1
e|---------------------------------------------------------------------------|
B|---------------------------------------------------------------------------|
G|--4------------------------------------------------------------------------|
D|--4------4-----------------------------------------------------------------|
A|--2------2-----------------------------------------------------------------|
E|---------0-----------------------------------------------------------------|

guitar 2
e|---------------------------------------------------------------------------|
B|---------------------------------------------------------------------------|
G|---------------------------------------------------------------------------|
D|-------------11-11-8-8-6-----------8-8-6-6-4-------------------------------|
A|----4h6h4h6---------------4h6h4h6------------------------------------------|
E|---------------------------------------------------------------------------|

guitar 2 (i'm learning now)
e|---------------------------------------------------------------------------|
B|---16-16-16-16--14-14-12---------------------------------------------------|
G|---16-16-16-16--16-16-16---------------------------------------------------|
D|---------------------------------------------------------------------------|
A|---------------------------------------------------------------------------|
E|---------------------------------------------------------------------------|

guitar 2 (when there's something)	(Changes into this at end)
e|--19-19-18-18-14-14--------------------19-19-21b---------------------------|
B|--16-16-19-19-19-19--------------------16-16-16----------------------------|
G|---------------------------------------------------------------------------|
D|---------------------------------------------------------------------------|
A|---------------------------------------------------------------------------|
E|---------------------------------------------------------------------------|

 


************************************

| /   slide up
| \   slide down
| h   hammer-on
| p   pull-off
| ~   vibrato
| +   harmonic
| x   Mute note
| b   Bend
| pb  Pre-bend
| br  Bend release
| pbr Pre-bend release
| brb Bend release bend

************************************
Tap to rate this tab
# A B C D E F G H I J K L M N O P Q R S T U V W X Y Z