Song name
# A B C D E F G H I J K L M N O P Q R S T U V W X Y Z

The Dangerous Summer - The Permanent Rain tab

----------------------------------------------------------------------------
			     The Permanent Rain - The Dangerous Summer
----------------------------------------------------------------------------
Tabbed by: Casey Scovell
Email: Liveskater08@yahoo.com

the tab for this song on this site is COMPLETELY WRONG! so i thought id put a version 
is almost 100% right. here you go. enjoy.

Tuning: down two whole steps

Intro: (Repeated a lot through out the song.)

e|---------------------------------------------------------------------|
B|---------------------------------------------------------------------|
G|----7-7-------7-7---7-7-------7-7----7-7-------7-7----7-7-------7-7--|
D|--------10-10-----------10-10------------10-10------------10-10------|
A|--8---------------0---------------10---------------10----------------|
E|---------------------------------------------------------------------|

Verse (repeat)

e|----------------------------------------------|
B|----------------------------------------------|
G|----------------------------------------------|
D|----------------------------------------------|
A|--3---3-3--7-7--5-5-5--5-5--------------------|
E|--1---1-1--5-5--3-3-3--3-3--------------------|

Breakdown

e|----------------------------------------|
B|----------------------------------------|
G|----------------------------------------|
D|----------------------------------------|
A|--3-----7-----10-----5----5-------------|
E|--1-----5-----8------3----3-------------|


thats basicaly it. all those parts are repeated quite a bit in the song so you have to 
out how many times. if you have any corrections email me at Liveskater08@yahoo.com.

************************************

| /   slide up
| \   slide down
| h   hammer-on
| p   pull-off
| ~   vibrato
| +   harmonic
| x   Mute note
| b   Bend
| pb  Pre-bend
| br  Bend release
| pbr Pre-bend release
| brb Bend release bend

************************************
Tap to rate this tab
# A B C D E F G H I J K L M N O P Q R S T U V W X Y Z