Song name
# A B C D E F G H I J K L M N O P Q R S T U V W X Y Z

The Dangerous Summer - Symmetry tab

Artist: The Dangerous Summer
Song: Symmetry
Tabbed by: shaneburchmusic
Listen Here: http://lllmusic.blogspot.com/2010/12/dangerous-summer-symmetry.html

1/2 step down

Intro

E ----------------------------------------|
B ----------------------------------------|
G -4--4--4--4-----------------------------|
D -4--4--4--4-----------------------------|
A -x--2--2--2-----------------------------|
E -4--2--0--2-----------------------------|

Verse

E ----------------------------------------|
B ----------------------------------------|
G -4--4--4--4-----------------------------|
D -4--4--4--4-----------------------------|
A -2--x--2--2-----------------------------|
E -2--4--2--0-----------------------------|

Chorus

E ----------------------------------------|
B ----------------------------------------|
G -4--4--4--4-----------------------------|
D -4--4--4--4-----------------------------|
A -x--2--2--2-----------------------------|
E -4--2--0--2-----------------------------|


Bridge

E ------------------------------------------|
B ------------------------------------------|
G -4--4--4--4--4----------------------------|
D -4--4--4--4--4----------------------------|
A -x--2--x--2--2----------------------------|
E -4--2--4--2--0----------------------------|
Tap to rate this tab
 
# A B C D E F G H I J K L M N O P Q R S T U V W X Y Z