Song name
# A B C D E F G H I J K L M N O P Q R S T U V W X Y Z

The Dangerous Summer - Symmetry Acoustic tab

Rythym Guitar Tab

Intro

D -------------------------------------------------|
A -------------------------------------------------|
F -4-4-4-4-4-4-4-4-4-4-4-4-4-4-4-4-4-4-4-----------|
C -4-4-4-4-4-4-4-4-4-4-4-4-4-4-4-4-4-4-4-----------|
G -2-2-2-2-2-2-2-2-2-2-2-2-2-2-2-2-2-2-2-----------|
D -2-2-2-4-4-4-4-2-2-2-2-0-0-0-0-2-2-2-2-----------|

Verse 1

D -------------------------------------------------|
A -------------------------------------------------|
F -4--4--------4-4--4--4---------------------------|
C -4--4--------4-4--4--4---------------------------|
G -2--2--------2-2--2--2---------------------------|
D -x--4--------2-2--0--0---------------------------|

Chorus

D -------------------------------------------------|
A -------------------------------------------------|
F -4-4-4-4-4-4-4-4-4-4-4-4-4-4-4-4-4-4-4-----------|
C -4-4-4-4-4-4-4-4-4-4-4-4-4-4-4-4-4-4-4-----------|
G -2-2-2-2-2-2-2-2-2-2-2-2-2-2-2-2-2-2-2-----------|
D -2-2-2-4-4-4-4-2-2-2-2-0-0-0-0-2-2-2-2-----------|

Verse 2

D -------------------------------------------------|
A -------------------------------------------------|
F -4--4--------4-4-4--4--4-------------------------|
C -4--4--------4-4-4--4--4-------------------------|
G -2--2--------2-2-2--2--2-------------------------|
D -x--4--------2-2-2--0--0-------------------------|

Bridge

D -------------------------------------------------|
A -------------------------------------------------|
F -4---4---4---4---4---4---------------------------|
C -4---4---4---4---4---4---------------------------|
G -2---4---2---2---2---2---------------------------|
D -0---x---4---x---0---0---------------------------|

Chorus

D -------------------------------------------------|
A -------------------------------------------------|
F -4-4-4-4-4-4-4-4-4-4-4-4-4-4-4-4-4-4-4-----------|
C -4-4-4-4-4-4-4-4-4-4-4-4-4-4-4-4-4-4-4-----------|
G -2-2-2-2-2-2-2-2-2-2-2-2-2-2-2-2-2-2-2-----------|
D -2-2-2-4-4-4-4-2-2-2-2-0-0-0-0-2-2-2-2-----------|
Tap to rate this tab
 
# A B C D E F G H I J K L M N O P Q R S T U V W X Y Z