Song name
# A B C D E F G H I J K L M N O P Q R S T U V W X Y Z

The Dangerous Summer - Weathered tab

Didn't really see an accurate depiction of this song. I'm just going to give you the
meat and potatoes of this song since I don't have much time. The chords are just swapped
around from time to time and a change in rhythm. Enjoy! It's a fun song to play on 
acoustic or electric. Just listen to the song for the rhythm and strumming which is really
important for this song.

Tabbed by: Blake Bocinski


Intro/Verse:

D:--------------------------------------------------------|
A:--------------------------------------------------------|
F:------------0--0--------0--0--------0--0-----------0--0-|
C:------------0--0--------0--0--------0--0-----------0--0-|
G:-----------10-10-------10-10-------10-10----------10-10-|
D:--12-12-12-12-12-7-7-7--7--7-8-8-8--8--8-10-10-10-10-10-|

D:---------------------------------------------------|
A:---------------------------------------------------|
F:------------0--0--------0--0--------0--0-------0-0-|
C:------------0--0--------0--0--------0--0-------0-0-|
G:-----------10-10-------10-10-------10-10-------7-7-|
D:--12-12-12-12-12-7-7-7--7--7-8-8-8--8--8-5-5-5-5-5-|


Chorus:

D:--0-0--0-0--0-0-0-0---0-0--0-0--0-0-0-0---0-0--0-0--0-0-0-0--0-0--0-0-|
A:--0-0--0-0--0-0-0-0---0-0--0-0--0-0-0-0---0-0--0-0--0-0-0-0--0-0--0-0-|
F:--0-0--0-0--0-0-0-0---0-0--0-0--0-0-0-0---0-0--0-0--0-0-0-0--0-0--0-0-|
C:--7-7--7-7--7-7-7-7---7-7--7-7--7-7-7-7---5-5--5-5--5-5-5-5--5-5--5-5-|
G:--7-7--7-7--7-7-7-7---5-5--5-5--5-5-5-5---3-3--3-3--3-3-3-3--3-3--3-3-|
D:--0-0--0-0--0-0-0-0---------------------------------------------------|

D:--0-0-0-0-0-0-|
A:--0-0-0-0-0-0-|
F:--0-0-0-0-0-0-|
C:--5-5-5-5-5-5-|
G:--3-3-3-3-3-3-|
D:--------------|
Tap to rate this tab
# A B C D E F G H I J K L M N O P Q R S T U V W X Y Z