Song name
# A B C D E F G H I J K L M N O P Q R S T U V W X Y Z

The Dangerous Summer - In My Room tab

The Dangerous Summer - In My Room
Awesome song by an awesome not well known band. enjoy.

b - bend
r - release bend
~ - let ring

Intro 
D|------------------------------|
A|---0---0----------------------|
F|---0---0----------------------|
C|------------------------------|
G|-3---3------------------------|
D|------------------------------|  x8



		VERSE - RHYTHM
D|------------------------------------|
A|---0---0---0---0---0---0------------|
F|---0---0---0---0---0---0------------|
C|------------------------------------|
G|------------------2---2-------------|
D|--0--0---3---3----------------------| 

D|-----------------------------------|
A|---0---0---0---0---0---0---0--0----|
F|---0---0---0---0---0---0---0--0----|
C|-----------------------------------|
G|-3---3---3---3---3---3---3---3-----|
D|-----------------------------------| 

X8

		VERSE - LEAD
*NOTE: this is not the exact picking pattern.
you should be able to figure it out though.
D|--10--12-----10--10--12-----10------------|
A|---------12--------------12-------10------|
F|-------------------------------12---------|
C|------------------------------------------|
G|------------------------------------------|
D|------------------------------------------| x3     

D|--10--12-----10--10--12-12----15-15-15-15-14-14-14-14---|
A|---------12---------------------------------------------|
F|--------------------------------------------------------|
C|--------------------------------------------------------|
G|--------------------------------------------------------|
D|--------------------------------------------------------|  



CHORUS - RHYTHM
D|----|-----|-----|----|
A|----|-----|-----|----|
F|--5-|-----|-----|--7-|
C|--5-|--2--|--5--|--7-|
G|--3-|--2--|--5--|--5-|
D|----|--0--|--3--|----| x2

CHORUS - LEAD

D|---------19-----------19-19----17----17---------|
A|--15s17-----17--15s17-------17----17----17------|
F|------------------------------------------------|
C|------------------------------------------------|
G|------------------------------------------------|
D|------------------------------------------------| x3

D|---------19----------15-15-15-15-14-14-14-14----|
A|--15s17-----17---17-----------------------------|
F|------------------------------------------------|
C|------------------------------------------------|
G|------------------------------------------------|
D|------------------------------------------------| 

D|---------19-----------19-19b20-19----17---------|
A|--15s17-----17--15s17-------------17----17------|
F|------------------------------------------------|
C|------------------------------------------------|
G|------------------------------------------------|
D|------------------------------------------------| x3

D|---------19----------15-15-15-15-14-14-14-14----|
A|--15s17-----17---17--------------------------15-|
F|------------------------------------------------|
C|------------------------------------------------|
G|------------------------------------------------|
D|------------------------------------------------| 




BRIDGE - RHYTHM
D|---|
A|-0-|
F|-0-|
C|-x-|
G|-3-|
D|---|


BRIDGE - LEAD
D|---------------------------------------------------------|
A|---------------------------------------------------------|
F|-16-16-16----------14-14-14------------------------------|
C|----------17-17-17-------------14-14--17-17-16-16--------|
G|----------------------------17---------------------------|
D|---------------------------------------------------------|

D|---------------------------------------------------------|
A|---------------------------------------------------------|
F|-16-16-16----------14-14-14-----------------14-14--------|
C|----------17-17-17-------------14-14--17-17--------------|
G|----------------------------17---------------------------|
D|---------------------------------------------------------|

D|---------------------------------------------------------|
A|---------------------------------------------------------|
F|-16-16-16----------14-14-14------------------------------|
C|----------17-17-17-------------14-14--17-17-16-16--------|
G|----------------------------17---------------------------|
D|---------------------------------------------------------|

D|----------------------------15-15-14-14------------------|
A|----------------15-15-------------------15-15-17---------|
F|-16-16-16-------------14-14------------------------------|
C|----------17-17------------------------------------------|
G|---------------------------------------------------------|
D|---------------------------------------------------------|

D|----------------------------15-15-14-14------------------|
A|----------------15-15-------------------15-15-15---------|
F|-16-16-16-------------14-14------------------------------|
C|----------17-17------------------------------------------|
G|---------------------------------------------------------|
D|---------------------------------------------------------|

D|----------------------------15-15-14-14------------------|
A|----------------15-15-------------------15-15-15---------|
F|-16-16-16-------------14-14------------------------------|
C|----------17-17------------------------------------------|
G|---------------------------------------------------------|
D|---------------------------------------------------------|

D|----------------------------15-15-14-14------------------|
A|----------------15-15-------------------15-15-15---------|
F|-16-16-16-------------14-14------------------------------|
C|----------17-17------------------------------------------|
G|---------------------------------------------------------|
D|---------------------------------------------------------|

D|----------------------------15-15-14-14------------------|
A|----------------15-15------------------------------------|
F|-16-16-16-------------14---------------------------------|
C|----------17-17------------------------------------------|
G|---------------------------------------------------------|
D|---------------------------------------------------------|



OUTRO - RHYTHM
D|----|-----|-----|----|
A|----|-----|-----|----|
F|--2-|--5--|-----|--7-|
C|--2-|--5--|--2--|--7-|
G|--0-|--3--|--2--|--5-|
D|----|-----|--0--|----| x2



Tap to rate this tab
# A B C D E F G H I J K L M N O P Q R S T U V W X Y Z