Song name
# A B C D E F G H I J K L M N O P Q R S T U V W X Y Z

The Dangerous Summer - The Permanent Rain Acoustic tab

TDS///Permanent Rain (acoustic)
Thought I'd tab this out because I couldn't find a really reliable one. Tweak it however 
you want it. First tab <3

Capo on 2nd

Intro
e|--------------------------------------|
B|--------------------------------------|
G|----0---0---0---0----0-2-0----0-2-0---| x4
D|------0-------0----0--------0---------|
A|--3-----------------------------------|
E|----------0---------------------------|

The singing starts at the last (0 0 2 0) of the measure above
"so why the sudden change.."
e|--------------------------------------|
B|--------------------------------------|
G|----0---0---0---0----0-2-0----0-2-0---| x4
D|------0-------0----0--------0---------|
A|--3-----------------------------------|
E|----------0---------------------------|

Chorus (listen for strumming)
e|--0--0--2---|
B|--3--0--3---| x4
G|--0--0--2---|
D|--2--2--0---|
A|--3--2--0---|
E|-----0------|

"can i pull out all the stops.."
e|--------------------------------------|
B|--------------------------------------|
G|----0---0---0---0----0-2-0----0-2-0---| x8
D|------0-------0----0--------0---------|
A|--3-----------------------------------|
E|----------0---------------------------|

Chorus
e|--0--0--2---|
B|--3--0--3---| x4
G|--0--0--2---|
D|--2--2--0---|
A|--3--2--0---|
E|-----0------|

Let all of these ring
e|----------------------------------|
B|----------------------------------|
G|----------------------------------|
D|--2---9---0---0--5---9---0--5--5--|
A|--3--10--10--10--5--10--10--5--5--|
E|----------------------------------|

Listen for the strumming
"i wrote this note.."
e|---------------------------------|
B|---------------------------------|
G|---------------------------------|
D|--5---9--5---9--5---9--5---9-----|
A|--5--10--5--10--5--10--5--10-----|
E|---------------------------------|

Chorus twice
e|--0--0--2---|
B|--3--0--3---| x8
G|--0--0--2---|
D|--2--2--0---|
A|--3--2--0---|
E|-----0------|

End with
e|--0--|
B|--3--|
G|--0--|
D|--2--|
A|--3--|
E|-----|
Tap to rate this tab
# A B C D E F G H I J K L M N O P Q R S T U V W X Y Z