Song name
# A B C D E F G H I J K L M N O P Q R S T U V W X Y Z

The Dangerous Summer - Siren tab

sb - slight bend
t - tremolo

Intro/Verse


Lead
e|----18-------18-------18-------18-------18------18-------18-------18------|
B|-15----15-15----15-16----16-16----16---------------------------18----18---|
G|-------------------------------------15----15-15---15-15----15------------|
D|--------------------------------------------------------------------------|
A|--------------------------------------------------------------------------|
E|--------------------------------------------------------------------------|

Rhythm
e|------------------------------|
B|------------------------------|
G|-3---7------------------------|
D|-x---x------------------------|
A|-1---5------------------------|
E|------------------------------|

e|------------------------------|
B|------------------------------|
G|-----8------------------------|
D|-5---x------------------------|
A|-x---6------------------------|
E|-3----------------------------|


Chorus

Rhythm
e|-------------------|
B|-------------------|
G|-------------------|
D|--8----------------|
A|--8----------------|
E|--6----------------|

Lead


e|--10sb-(x10)--8(x4)--6(x4)----|
B|------------------------------|
G|------------------------------|
D|------------------------------|
A|------------------------------|
E|------------------------------|
*note: while doing the bend on the 10, the bend is stronger at first but he slowly
releases into the natural note.

Rhythm
e|-------------------|
B|-------------------|
G|-------------------|
D|--5----------------|
A|--5----------------|
E|--3----------------|

Lead
e|------8-8-6-6-----8-8-6-6-----8-8-----|
B|--6-6---------6-6---------6-6---------|
G|--------------------------------------|
D|--------------------------------------|
A|--------------------------------------|
E|--------------------------------------|



Repeat Intro/Verse

Brige Part 1 - Rhythm 
e|--------------------------------|
B|--------------------------------|
G|-7-----8------------------------|
D|-x(x3)-x(x6)----8-----5---------|
A|-5-----6--------x(x4)-x(x3)-----|
E|----------------6-----3---------|

e|--------------------------------|
B|--------------------------------|
G|-7-----8------------------------|
D|-x(x3)-x(x6)----8-----10--------|
A|-5-----6--------x(x4)-x(x3)-----|
E|----------------6-----8---------|

e|--------------------------------|
B|--------------------------------|
G|-7-----8------------------------|
D|-x(x3)-x(x6)----8-----5---------|
A|-5-----6--------x(x4)-x(x3)-----|
E|----------------6-----3---------|

e|--------------------------------|
B|--------------------------------|
G|-7-----8------------------------|
D|-x(x3)-x(x13)-------------------|
A|-5-----6------------------------|
E|--------------------------------|

Bridge Part 1 lead - 
e|-------13-----13--------13------------13---------|
B|----11------11-----11-----11----13-13----13------|
G|-10-------10-----10---10----10-------------------|
D|-------------------------------------------------|
A|-------------------------------------------------|
E|-------------------------------------------------|

e|-------13-----13--------13-----------------------|
B|----11------11-----11-----11----13-13--11--13----|
G|-10-------10-----10---10----10-------------------|
D|-------------------------------------------------|
A|-------------------------------------------------|
E|-------------------------------------------------|

e|-------13-----13--------13------------13---------|
B|----11------11-----11-----11----13-13----13------|
G|-10-------10-----10---10----10-------------------|
D|-------------------------------------------------|
A|-------------------------------------------------|
E|-------------------------------------------------|


e|-------13-----13--------13-----------------------|
B|----11------11-----11-----11----11---11----------|
G|-10-------10-----10---10----10-----10---10-------|
D|-------------------------------------------------|
A|-------------------------------------------------|
E|-------------------------------------------------|


Bridge part 2 - Rhythm
e|-----|-----|-----|-----|
B|-----|-----|-----|-----|
G|-----|-----|-----|--8--|
D|--5--|--3--|--8--|--8--|
A|--5--|--3--|--8--|--6--|
E|--3--|--1--|--6--|-----|

Bridge Part 2 - Lead
e|--18x3-------------------|
B|-----18x3-16x3-----------|
G|--------------19x3-17x4--|
D|-------------------------|
A|-------------------------|
E|-------------------------|

e|--18x3----------------------|
B|-----18x3-16x3--------------|
G|--------------19x3-19sb-----|
D|----------------------------|
A|----------------------------|
E|----------------------------|

e|----------------------------|
B|----------------------------|
G|--19sbt--17t--19sbt---------|
D|----------------------------|
A|----------------------------|
E|----------------------------|

e|------------------------------|
B|--------------15t--14t--15t---|
G|------------------------------|
D|------------------------------|
A|------------------------------|
E|------------------------------|

e|--18x3-------------------|
B|-----18x3-16x3-----------|
G|--------------19x3-17x4--|
D|-------------------------|
A|-------------------------|
E|-------------------------|

e|--18x3-------------------|
B|-----18x3-16x3-----------|
G|--------------19x3-17x4--|
D|-------------------------|
A|-------------------------|
E|-------------------------|

e|-------------------------------|
B|-------------------------------|
G|--19sbt--17t--19sbt-------15~--|
D|-------------------------------|
A|-------------------------------|
E|-------------------------------|



Repeat Chorus


end on
Rhythm
e|-------------------|
B|-------------------|
G|-------------------|
D|--8----------------|
A|--8----------------|
E|--6----------------|

Lead
e|--6----------------|
B|-------------------|
G|-------------------|
D|-------------------|
A|-------------------|
E|-------------------|



ENJOY TDS!!!!







Tap to rate this tab
# A B C D E F G H I J K L M N O P Q R S T U V W X Y Z