Song name
# A B C D E F G H I J K L M N O P Q R S T U V W X Y Z

The Dangerous Summer - No Ones Gonna Need You More tab

                  No One's Gonna Need You More - The Dangerous Summer
-------------------------------------------------------------------------------
Tabbed by: Timeconsumr
Tuning: One Step Down 

Intro: Lead Brian Czap (Trill) 2x
e|10t-14t-10t-14t-10t-14t-10t-14t-10t-12t-10t-12t-10t-12t-10t-12t-------------|
B|----------------------------------------------------------------------------|
G|----------------------------------------------------------------------------|
D|----------------------------------------------------------------------------|
A|----------------------------------------------------------------------------|
E|----------------------------------------------------------------------------|
Rhythm: Cody Payne 2x
e|---------------------------------------------------------------------------|
B|---------------------------------------------------------------------------|
G|7---------7----------------------------------------------------------------|
D|7-(16x)---5-(16x)----------------------------------------------------------|
A|5---------5----------------------------------------------------------------|
E|---------------------------------------------------------------------------|

Verse: Rhythm: Cody Payne 4x
e|---------------------------------------------------------------------------|
B|---------------------------------------------------------------------------|
G|7---------7----------------------------------------------------------------|
D|7-(16x)---5-(16x)----------------------------------------------------------|
A|5---------5----------------------------------------------------------------|
E|---------------------------------------------------------------------------|
Pre-Chorus: "And Ill Hold That Waiting Hand For You..."
e|----------------------------------------------------------------------------|
B|----------------------------------------------------------------------------|
G|---------------------7---------7-----7--------------------------------------|
D|---------------------7---------7-----5--------------------------------------|
A|---------------------5---------5-----5--------------------------------------|
E|---------------------7---------5-----x--------------------------------------|

Pre-Chorus: "And Drown All The Words Out
e|-------------------------------------------------------------------------|
B|-------------------------------------------------------------------------|
G|---------------7-------------7------7------------------------------------|
D|---------------7-------------7------5------------------------------------|
A|---------------5-------------5------5------------------------------------|
E|---------------7-------------5------x------------------------------------|

Chorus: Lead Brian Czap (Trill) 2x
e|10t-14t-10t-14t-10t-14t-10t-14t-10t-12t-10t-12t-10t-12t-10t-12t------------|
B|---------------------------------------------------------------------------|
G|---------------------------------------------------------------------------|
D|---------------------------------------------------------------------------|
A|---------------------------------------------------------------------------|
E|---------------------------------------------------------------------------|
Rhythm: Cody Payne

I Couldnt make it past  those eyes, I think im feeling like the wind sometimes I wish we'd try and

e|---------------------------------------------------------------------------|
B|---------------------------------------------------------------------------|
G|----------------7----------------------------------------------7-----------|
D|----------------7----------------------------------------------5-----------|
A|----------------5----------------------------------------------5-----------|
E|---------------------------------------------------------------------------|

 Begin, no ones gonna need you more
e|---------------------------------------------------------------------------|
B|---------------------------------------------------------------------------|
G|-7---------------------------------7---------------------------------------|
D|-7---------------------------------5---------------------------------------|
A|-5---------------------------------5---------------------------------------|
E|-7---------------------------------x---------------------------------------|

Repeat Intro, Verse, Pre-Chorus

Chorus: Lead Brian Czap (Trill) 4x
e|10t-14t-10t-14t-10t-14t-10t-14t-10t-12t-10t-12t-10t-12t-10t-12t------------|
B|---------------------------------------------------------------------------|
G|---------------------------------------------------------------------------|
D|---------------------------------------------------------------------------|
A|---------------------------------------------------------------------------|
E|---------------------------------------------------------------------------|
Rhythm: Cody Payne

I Couldnt make it past  those eyes, I think im feeling like the wind sometimes I wish we'd try and

e|----------------------------------------------------------------------------|
B|----------------------------------------------------------------------------|
G|----------------7----------------------------------------------7------------|
D|----------------7----------------------------------------------5------------|
A|----------------5----------------------------------------------5------------|
E|----------------------------------------------------------------------------|

 Begin, no ones gonna need you more
e|----------------------------------------------------------------------------|
B|----------------------------------------------------------------------------|
G|-7---------------------------------7----------------------------------------|
D|-7---------------------------------5----------------------------------------|
A|-5---------------------------------5----------------------------------------|
E|-7---------------------------------x----------------------------------------|


Fine, well I tried but falling back to sin, well those nights you were keeping me in

e|----------------------------------------------------------------------------|
B|----------------------------------------------------------------------------|
G|-7-----------------------------------7--------------------------------------|
D|-7-----------------------------------5--------------------------------------|
A|-5-----------------------------------5--------------------------------------|
E|----------------------------------------------------------------------------|

  Skin,      No ones gonna need you more
e|---------------------------------------------------------------------------|
B|---------------------------------------------------------------------------|
G|-7---------------------------------7---------------------------------------|
D|-7---------------------------------5---------------------------------------|
A|-5---------------------------------5---------------------------------------|
E|-7---------------------------------x---------------------------------------|

Bridge: Cody "I Hope You Listen, I need forgiveness we"


e|---------------------------------------------------------------------------|
B|---------------------------------------------------------------------------|
G|7--------------------------------------------------------------------------|
D|7--------------------------------------------------------------------------|
A|5--------------------------------------------------------------------------|
E|---------------------------------------------------------------------------|

    "Both can live with at all and I know,
e|----------------------------------------------------------------------------|
B|----------------------------------------------------------------------------|
G|-7--------------------------------------------------------------------------|
D|-5--------------------------------------------------------------------------|
A|-5--------------------------------------------------------------------------|
E|-x--------------------------------------------------------------------------|


  Either way I I will reach you, either way I was wrong"
e|---------------------------------------------------------------------------|
B|---------------------------------------------------------------------------|
G|-7---------------------------------7---------------------------------------|
D|-7---------------------------------5---------------------------------------|
A|-5---------------------------------5---------------------------------------|
E|-7---------------------------------x---------------------------------------|


 "If not for this end, Ill still be wishing I was

e|---------------------------------------------------------------------------|
B|---------------------------------------------------------------------------|
G|7--------------------------------------------------------------------------|
D|7--------------------------------------------------------------------------|
A|5--------------------------------------------------------------------------|
E|---------------------------------------------------------------------------|

    right there with you and all
e|----------------------------------------------------------------------------|
B|----------------------------------------------------------------------------|
G|-7--------------------------------------------------------------------------|
D|-5--------------------------------------------------------------------------|
A|-5--------------------------------------------------------------------------|
E|-x--------------------------------------------------------------------------|


  Either way I am see through       Either way Im not strong
e|----------------------------------------------------------------------------|
B|----------------------------------------------------------------------------|
G|-7---------------------------------7----------------------------------------|
D|-7---------------------------------5----------------------------------------|
A|-5---------------------------------5----------------------------------------|
E|-7---------------------------------x----------------------------------------|

  I was staring out                            To things I don't want to face
e|----------------------------------------------------------------------------|
B|----------------------------------------------------------------------------|
G|------------------7----------------7----------------------------------------|
D|------------------7----------------5----------------------------------------|
A|------------------5----------------5----------------------------------------|
E|------------------7----------------x----------------------------------------|

                             "I Need Back Inside Your Veins"

e|----------------------------------------------------------------------------|
B|----------------------------------------------------------------------------|
G|-----7----------------7-----------------------------------------------------|
D------7----------------5-----------------------------------------------------|
A|-----5----------------5-----------------------------------------------------|
E|-----7----------------x-----------------------------------------------------|

                             "Im Dying Out....Yeah"

e|----------------------------------------------------------------------------|
B|----------------------------------------------------------------------------|
G|-----7----------------7----------------------7------------------------------|
D------7----------------5----------------------5------------------------------|
A|-----5----------------5----------------------5------------------------------|
E|-----7----------------x----------------------x------------------------------|

Repeat Chorus (4x)
Done. Please Comment.

Lyrics:
I told you, ďLifeís not fairĒ
At least we know why itís not an easy air to find
I watched you sink right in a bottle of wine
It mustíve seemed like I could die
And I was pining back
Turned out all the lights and I could barely stand
Coloring the lines in with my proper hand
Lightly pushed away
And Iíll hold that waiting hand for you and drown all the words out

I couldnít make it past those eyes
I think I feel like the wind
Sometimes, I wish weíd try to begin
No oneís gonna need you more
No oneís gonna need you more

Iíve got mine
Moving Ďcross the country I lost track of time
Trying to make a name for myself
Cause every lonely heart can use an honest song they can sing along to
Youíre the home Iíve been dying to make
And the gold that God didnít take
Iíll hold that waiting hand for you and drown all the words out

I couldnít make it past those eyes
I think I feel like the wind
Sometimes, I wish weíd try to begin
No oneís gonna need you more
No oneís gonna need you...

Fine, I tried, but falling back to sin
Those nights you were keeping me in skin
No oneís gonna need you more
No oneís gonna need you more

I hope you listen
I need forgiveness
We both can live with at all
And I know, either way I will reach you
Either way I was wrong
If not for this end
Iíll still be wishing I was right there with you and all
Either way I am see through
Either way Iím not strong
I was staring out to things I donít want to face
I need back inside your veins
Iím dying out now

I couldnít make it past those eyes
I think I feel like the wind
Sometimes, I wish weíd try to begin
No oneís gonna need you more
No oneís gonna need you...

Fine, I tried, but falling back to sin
Those nights you were keeping me in skin
No oneís gonna need you more
No oneís gonna need you more
Tap to rate this tab
# A B C D E F G H I J K L M N O P Q R S T U V W X Y Z