Song name
# A B C D E F G H I J K L M N O P Q R S T U V W X Y Z

The Dangerous Summer - This Is War Acoustic tab

Song:This Is War
Artist:The Dangerous Summer
Album: An Acoustic Performance of Reach For The Sun

Tabbed by Tyler Reeves
This is the way I play it while playing along to the song.
Sounds pretty accurate to me. All tabbed by ear.
Leave some feedback!

Tuning: C# G# C# F# A# d#

Intro I:
d#|-----------------------------------------------------------|
A#|-----------------------------------------------------------|
F#|-111111--111--111111--114--444444--666--6666--999--9999----|
C#|-000000--000--000000--002--222222--444--4444--777--7777----| [x3]
G#|-000000--000--000000--002--222222--444--4444--777--7777----|
C#|-000000--000--000000--002--222222--444--4444--777--7777----|
    DDDDDD  DUD  DDDDDD  DUD  DDDDDD  DUD  DDDD  DUD  DDDD
(Listen for proper strumming pattern and transitions between chords)
  (This keeps the same strumming throughout the entire song.)
Intro II
d#|-----------------------------------------------------------|
A#|-----------------------------------------------------------|
F#|-111111--111--111111--114--444444--6-----------------------|
C#|-000000--000--000000--002--222222--4-----------------------|[x1]
G#|-000000--000--000000--002--222222--4-----------------------|
C#|-000000--000--000000--002--222222--4-----------------------|
    DDDDDD  DUD  DDDDDD  DUD  DDDDDD  .

Verse:
d#|-----------------------------------------------------------|
A#|-----------------------------------------------------------|
F#|-111111--111--111111--114--444444--666--6666--999--9999----|
C#|-000000--000--000000--002--222222--444--4444--777--7777----| [x4]
G#|-000000--000--000000--002--222222--444--4444--777--7777----|
C#|-000000--000--000000--002--222222--444--4444--777--7777----|
    DDDDDD  DUD  DDDDDD  DUD  DDDDDD  DUD  DDDD  DUD  DDDD

Pre-Chorus:
d#|------------------------------------------------------|
A#|------------------------------------------------------|
F#|-666666--661--111111--119--999999--999--999999--------|
C#|-444444--440--000000--007--777777--777--777777--------|
G#|-444444--440--000000--007--777777--777--777777--------|
C#|-444444--440--000000--007--777777--777--777777--------|

d#|------------------------------------------------------|
A#|------------------------------------------------------|
F#|-666666--661--111111--111~----------------------------|
C#|-444444--440--000000--000~----------------------------|
G#|-444444--440--000000--000~----------------------------|
C#|-444444--440--000000--000~----------------------------|

d#|---------------------------|
A#|---------------------------|
F#|-1-1-1-1-1-1-1-1~----------|
C#|-0-0-0-0-0-0-0-0~----------|
G#|-0-0-0-0-0-0-0-0~----------|
C#|-0-0-0-0-0-0-0-0~----------|
(Strumming slows a bit here)

Chorus:
d#|------------------------------------------------------|
A#|------------------------------------------------------|
F#|-666666--661--111111--119--999999--999--999999--------|
C#|-444444--440--000000--007--777777--777--777777--------| [x2]
G#|-444444--440--000000--007--777777--777--777777--------|
C#|-444444--440--000000--007--777777--777--777777--------|

d#|------------------------------------------------------|
A#|------------------------------------------------------|
F#|-666666--664--444444--441--111111--111--111111--------|
C#|-444444--442--222222--220--000000--000--000000--------|
G#|-444444--442--222222--220--000000--000--000000--------|
C#|-444444--442--222222--220--000000--000--000000--------|

d#|------------------------------------------------------|
A#|------------------------------------------------------|
F#|-666666--664--444444--441--111111--111--111111--------|
C#|-444444--442--222222--220--000000--000--000000--------|
G#|-444444--442--222222--220--000000--000--000000--------|
C#|-444444--442--222222--220--000000--000--000000--------|
                                                .
Verse:
d#|-----------------------------------------------------------|
A#|-----------------------------------------------------------|
F#|-111111--111--111111--114--444444--666--6666--999--9999----|
C#|-000000--000--000000--002--222222--444--4444--777--7777----| [x4]
G#|-000000--000--000000--002--222222--444--4444--777--7777----|
C#|-000000--000--000000--002--222222--444--4444--777--7777----|

Pre-Chorus:
d#|------------------------------------------------------|
A#|------------------------------------------------------|
F#|-666666--661--111111--119--999999--999--999999--------|
C#|-444444--440--000000--007--777777--777--777777--------|
G#|-444444--440--000000--007--777777--777--777777--------|
C#|-444444--440--000000--007--777777--777--777777--------|

d#|------------------------------------------------------|
A#|------------------------------------------------------|
F#|-666666--661--111111--111~----------------------------|
C#|-444444--440--000000--000~----------------------------|
G#|-444444--440--000000--000~----------------------------|
C#|-444444--440--000000--000~----------------------------|

d#|---------------------------|
A#|---------------------------|
F#|-1-1-1-1-1-1-1-1~----------|
C#|-0-0-0-0-0-0-0-0~----------|
G#|-0-0-0-0-0-0-0-0~----------|
C#|-0-0-0-0-0-0-0-0~----------|

Chorus:
d#|------------------------------------------------------|
A#|------------------------------------------------------|
F#|-666666--661--111111--119--999999--999--999999--------|
C#|-444444--440--000000--007--777777--777--777777--------| [x2]
G#|-444444--440--000000--007--777777--777--777777--------|
C#|-444444--440--000000--007--777777--777--777777--------|

d#|------------------------------------------------------|
A#|------------------------------------------------------|
F#|-666666--664--444444--441--111111--111--111111--------|
C#|-444444--442--222222--220--000000--000--000000--------| [x2]
G#|-444444--442--222222--220--000000--000--000000--------|
C#|-444444--442--222222--220--000000--000--000000--------|

Bridge:
d#|---------------------------------------|
A#|---------------------------------------|
F#|-444444--444--111111--111--111111------|
C#|-222222--222--000000--000--000000------| [x4]
G#|-222222--222--000000--000--000000------|
C#|-222222--222--000000--000--000000------|
(Listen for transitions)

Chorus:
d#|------------------------------------------------------|
A#|------------------------------------------------------|
F#|-666666--661--111111--119--999999--999--999999--------|
C#|-444444--440--000000--007--777777--777--777777--------| [x2]
G#|-444444--440--000000--007--777777--777--777777--------|
C#|-444444--440--000000--007--777777--777--777777--------|

d#|------------------------------------------------------|
A#|------------------------------------------------------|
F#|-666666--664--444444--441--111111--111--111111--------|
C#|-444444--442--222222--220--000000--000--000000--------| [x3]
G#|-444444--442--222222--220--000000--000--000000--------|
C#|-444444--442--222222--220--000000--000--000000--------|

Outro:
d#|--------------------------------------------------------|
A#|--------------------------------------------------------|
F#|-666666--664--444444--441--111111--111--111111~---------|
C#|-444444--442--222222--220--000000--000--000000~---------|
G#|-444444--442--222222--220--000000--000--000000~---------|
C#|-444444--442--222222--220--000000--000--000000~---------|

Alright there it is! Hope this helps!
Tap to rate this tab
# A B C D E F G H I J K L M N O P Q R S T U V W X Y Z