Song name
# A B C D E F G H I J K L M N O P Q R S T U V W X Y Z

The Dangerous Summer - Never Feel Alone tab

-------------------------------------------------------------------------------
                             never feel alone - the dangerous summer
-------------------------------------------------------------------------------
this is not to accurate but it still sounds good! also its really easy to play 
you just have to hear when the sound changes and the strumming of the guitar..
this is the ACOUSTIC version!! but i think it might work for the original also..
the key of playing this song is by really focusing on the sound and you'll see its 
not hard at all! this is my first time doing this 
http://www.youtube.com/watch?v=vpP2iW4C4-o
Tabbed by:john 
E-mail: jbramirez1994@yahoo.com

  [verse 1] 0.09
i drank the weekend to.... 3x     and you werent wearing... 1x   (keep on repeating)              
e|--3---3-3-3-3---3---3-3-3-3---|---3---3-3-3-3---3---3-3-3-3----|
B|--3---3-3-3-3---3---3-3-3-3---|---3---3-3-3-3---3---3-3-3-3----|
G|--0---0-0-0-0---0---0-0-0-0---|---0---0-0-0-0---0---0-0-0-0----|
D|--0---0-0-0-0---0---0-0-0-0---|---2---2-2-2-2---0---0-0-0-0----|
A|--0---0-0-0-0---3---3-3-3-3---|---0---0-0-0-0---3---3-3-3-3----|
E|--3---3-3-3-3---0---0-0-0-0---|---0---0-0-0-0---0---0-0-0-0----|

[verse 2] 0.44
 am i wrong.. (you can hear when the sound changes and just repeat)
e|--3-3-3-3-3---3---|--3-3-3-3-3---3----|
B|--3-3-3-3-3---3---|--3-3-3-3-3---3----|
G|--0-0-0-0-0---0---|--0-0-0-0-0---0----|
D|--0-0-0-0-0---0---|--0-0-0-0-0---0----|
A|--0-0-0-0-0---0---|--3-3-3-3-3---3----|
E|--3-3-3-3-3---3---|--0-0-0-0-0---0----|

repeat [verse 1] 1.07
repeat [verse 2] 1.30

 1.55 (keep strumming in a constant pase and nonstop till the end)
        1.55               1.58            2.00                       2.04
  cause im caught... word and i know.. else yeah i reached my point (repeat again)
e|--3-3-3-3-3-3-3-3--3-3-3-3-3-3-3-----3-3-3-3-3-3-3---------------3-3-3-3-3-3----|
B|--3-3-3-3-3-3-3-3--3-3-3-3-3-3-3-----3-3-3-3-3-3-3---------------3-3-3-3-3-3----|
G|--0-0-0-0-0-0-0-0--0-0-0-0-0-0-0-----0-0-0-0-0-0-0---------------2-2-2-2-2-2----|
D|--2-2-2-2-2-2-2-2--0-0-0-0-0-0-0-----0-0-0-0-0-0-0---------------0-0-0-0-0-0----|
A|--0-0-0-0-0-0-0-0--3-3-3-3-3-3-3-----2-2-2-2-2-2-2---------------0-0-0-0-0-0----|
E|--0-0-0-0-0-0-0-0--0-0-0-0-0-0-0-----0-0-0-0-0-0-0---------------0-0-0-0-0-0----|

       2.20                   2.22
  ill bring a peace of.. so you know...
e|--3-3-3-3-3-3-3--------3-3-3-3-3-3-3-----|
B|--3-3-3-3-3-3-3--------3-3-3-3-3-3-3-----|
G|--0-0-0-0-0-0-0--------0-0-0-0-0-0-0-----|
D|--2-2-2-2-2-2-2--------0-0-0-0-0-0-0-----|
A|--0-0-0-0-0-0-0--------3-3-3-3-3-3-3-----|
E|--0-0-0-0-0-0-0--------0-0-0-0-0-0-0-----|

      2.26            2.30             2.39             2.46
   am i wrong...  when all i...   cause ive been.. but its worth...(repeat once more)
e|--3-3-3-3-3-3---3-3-3-3-3-3-3---3-3-3-3-3-3-3-----3-3-3-3-3-3-3----|
B|--3-3-3-3-3-3---3-3-3-3-3-3-3---3-3-3-3-3-3-3-----3-3-3-3-3-3-3----|
G|--0-0-0-0-0-0---0-0-0-0-0-0-0---0-0-0-0-0-0-0-----0-0-0-0-0-0-0----|
D|--0-0-0-0-0-0---0-0-0-0-0-0-0---0-0-0-0-0-0-0-----0-0-0-0-0-0-0----|
A|--0-0-0-0-0-0---3-3-3-3-3-3-3---2-2-2-2-2-2-2-----3-3-3-3-3-3-3----|
E|--3-3-3-3-3-3---0-0-0-0-0-0-0---0-0-0-0-0-0-0-----0-0-0-0-0-0-0----|

Tap to rate this tab
# A B C D E F G H I J K L M N O P Q R S T U V W X Y Z