Song name
# A B C D E F G H I J K L M N O P Q R S T U V W X Y Z

The Dangerous Summer - Honesty Acoustic tab

-------------------------------------------------------------------------------
                             Honesty (Acoustic) - The Dangerous Summer
-------------------------------------------------------------------------------
Tabbed by: grizzlyangus
E-mail: acampbell4396@gmail.com

Tuning: C#, F#, B, E, G#, C#

This is the live acoustic version AJ, Cody and Matt did, PRIOR to the release of "Golden Record".
The strum pattern for the song is a little tricky so try watching how Cody plays it 
here: http://www.youtube.com/watch?v=LeFi2uSK4L0

Enjoy :)

These chords are used for the verses and choruses. Excluding the bridge which Cody uses 
an F#m. (I'll show it below)

e|---0---------0--------0--------0-----------------------------------------------|
B|---0---------0--------0--------0-----------------------------------------------|
G|---9---------9--------9--------9-----------------------------------------------|
D|---9---------9--------9--------9-----------------------------------------------|
A|---7---------0--------7--------0-----------------------------------------------|
E|---0---------0--------9--------0-----------------------------------------------|


Bridge

I had trouble trying to figure out the open F#m, I did my best. There are many different 
variations of the remainder of the bridge as well.
e|----0-----0-----0-----0--------------------------------------------------------|
B|----0-----0-----0-----0--------------------------------------------------------|
G|----4-----2-----9-----9--------------------------------------------------------|
D|----4-----2-----9-----9--------------------------------------------------------|
A|----x-----0-----7-----x--------------------------------------------------------|
E|----2-----0-----0-----7--------------------------------------------------------|


x - Mute
Tap to rate this tab
# A B C D E F G H I J K L M N O P Q R S T U V W X Y Z