Song name
# A B C D E F G H I J K L M N O P Q R S T U V W X Y Z

The Daniel Pemberton Tv Orchestra - Rock The Jungle tab

Bassline:

G|----------------------------------------------|
D|----------------------------------------------|
A|-------------9-12-14\--10~--10~--xx9-8-7------|
E|-/7~--7~-xx7-----------------------------10\--|

Here's a little bit of chords I play just to jam with the bassline, because I'm more of 
guitarist than a bassist. You can tweak with this all you want, slap a solo on top of it 
that edgy sound. :D
e|-7----10----9---------------------|
B|-7----12----11--------------------|
G|-7----10----9---------------------|
D|-7----12----11--------------------|
A|-9----10----9---------------------|
E|-7----10----9---------------------|

http://www.danielpemberton.com/index.html
Tap to rate this tab
# A B C D E F G H I J K L M N O P Q R S T U V W X Y Z