Song name
# A B C D E F G H I J K L M N O P Q R S T U V W X Y Z

The Darkest Of The Hillside Thickets - Shhh tab

--------------------------------------------------------------------------
				  Shhh...
		  The Darkest of the Hillside Thickets
--------------------------------------------------------------------------


Tuning: Standard

Intro
e|---------------------------------------------------|
B|---------------------------------------------------|
G|-6~-6-6---6~-6-6---6~-6-6---6~-6-6-----------------|
D|-6~-6-6---6~-6-6---6~-6-6---6~-6-6-----------------|
A|-4~-4-4---4~-4-4---4~-4-4---4~-4-4-----------------|
E|---------------------------------------------------|


Main Riff 4x
e|---------------------------------------------------|
B|---------------------------------------------------|
G|-6~~~~~~~~~~~~-------------------------------------|
D|-6~~~~~~~~~~~~-----------------8-8-9-9-11-11-13-13-|
A|-4~~~~~~~~~~~~-7-7-6-6-4-4-2-2-6-6-7-7-9--9--11-11-|
E|---------------5-5-4-4-2-2-0-0---------------------|


Verse 1
Part 1 2x
e|---------------------------------------------------|
B|---------------------------------------------------|
G|---------------------------------------------------|
D|-6~~~~~~~~~~~~~~~~~~-9~~~~~~~~---------------------|
A|-4~~~~~~~~~~~~~~~~~~-7~~~~~~~~-6~~~~~~~~-----------|
E|-------------------------------4~~~~~~~~-----------|

Part 2 2x
e|-------------------------------------------------------------|
B|-------------------------------------------------------------|
G|-6-6-x-6-6-6-x-6-6-6-x-6-6-6-x-6-9-9-x-9-9-9-x-9-------------|
D|-6-6-x-6-6-6-x-6-6-6-x-6-6-6-x-6-9-9-x-9-9-9-x-9-6-6-x-6-6-6-|
A|-4-4-x-4-4-4-x-4-4-4-x-4-4-4-x-4-7-7-x-7-7-7-x-7-6-6-x-6-6-6-|
E|-------------------------------------------------4-4-x-4-4-4-|

e|---------------------------------------------------|
B|---------------------------------------------------|
G|-6~-6-6---6~-6-6-----------------------------------|
D|-6~-6-6---6~-6-6-----------------------------------|
A|-4~-4-4---4~-4-4-----------------------------------|
E|---------------------------------------------------|


Verse 2
Part 1 2x
e|---------------------------------------------------|
B|---------------------------------------------------|
G|---------------------------------------------------|
D|-6~~~~~~~~~~~~~~~~~~-9~~~~~~~~---------------------|
A|-4~~~~~~~~~~~~~~~~~~-7~~~~~~~~-6~~~~~~~~-----------|
E|-------------------------------4~~~~~~~~-----------|

Part 2 2x
e|-----------------------------------------------------------------|
B|-----------------------------------------------------------------|
G|-6-6-x-6-6-6-x-6-6-6-x-6-6-6-x-6-9-9-x-9-9-9-x-9-----------------|
D|-6-6-x-6-6-6-x-6-6-6-x-6-6-6-x-6-9-9-x-9-9-9-x-9-6-6-x-6-6-6-----|
A|-4-4-x-4-4-4-x-4-4-4-x-4-4-4-x-4-7-7-x-7-7-7-x-7-6-6-x-6-6-6-----|
E|-------------------------------------------------4-4-x-4-4-4-----|


Chorus 1
e|-----------------------------------------------------------------|
B|-----------------------------------------------------------------|
G|-6-6-6-6-6-6-6-6-6-6-6-6-6-6-6-6---------------------------------|
D|-6-6-6-6-6-6-6-6-6-6-6-6-6-6-6-6-2-2-2-2-2-2-2-2-6-6-6-6-6-6-6-6-|
A|-4-4-4-4-4-4-4-4-4-4-4-4-4-4-4-4-2-2-2-2-2-2-2-2-6-6-6-6-6-6-6-6-|
E|---------------------------------0-0-0-0-0-0-0-0-4-4-4-4-4-4-4-4-|

e|-----------------------------------------------------------------|
B|-----------------------------------------------------------------|
G|-6-6-6-6-6-6-6-6-6-6-6-6-6-6-6-6---------------------------------|
D|-6-6-6-6-6-6-6-6-6-6-6-6-6-6-6-6-7-7-7-7-7-7-7-7-6-6-6-6-6-6-6-6-|
A|-4-4-4-4-4-4-4-4-4-4-4-4-4-4-4-4-7-7-7-7-7-7-7-7-6-6-6-6-6-6-6-6-|
E|---------------------------------5-5-5-5-5-5-5-5-4-4-4-4-4-4-4-4-|

e|---------------------------------------------------|
B|---------------------------------------------------|
G|-6~-6-6---6~-6-6-----------------------------------|
D|-6~-6-6---6~-6-6-----------------------------------|
A|-4~-4-4---4~-4-4-----------------------------------|
E|---------------------------------------------------|


Verse 3
Part 1 2x
e|---------------------------------------------------|
B|---------------------------------------------------|
G|---------------------------------------------------|
D|-6~~~~~~~~~~~~~~~~~~-9~~~~~~~~---------------------|
A|-4~~~~~~~~~~~~~~~~~~-7~~~~~~~~-6~~~~~~~~-----------|
E|-------------------------------4~~~~~~~~-----------|

Part 2 2x
e|-----------------------------------------------------------------|
B|-----------------------------------------------------------------|
G|-6-6-x-6-6-6-x-6-6-6-x-6-6-6-x-6-9-9-x-9-9-9-x-9-----------------|
D|-6-6-x-6-6-6-x-6-6-6-x-6-6-6-x-6-9-9-x-9-9-9-x-9-6-6-x-6-6-6-----|
A|-4-4-x-4-4-4-x-4-4-4-x-4-4-4-x-4-7-7-x-7-7-7-x-7-6-6-x-6-6-6-----|
E|-------------------------------------------------4-4-x-4-4-4-----|


Chorus 2 2x
e|-----------------------------------------------------------------|
B|-----------------------------------------------------------------|
G|-6-6-6-6-6-6-6-6-6-6-6-6-6-6-6-6---------------------------------|
D|-6-6-6-6-6-6-6-6-6-6-6-6-6-6-6-6-2-2-2-2-2-2-2-2-6-6-6-6-6-6-6-6-|
A|-4-4-4-4-4-4-4-4-4-4-4-4-4-4-4-4-2-2-2-2-2-2-2-2-6-6-6-6-6-6-6-6-|
E|---------------------------------0-0-0-0-0-0-0-0-4-4-4-4-4-4-4-4-|

e|-----------------------------------------------------------------|
B|-----------------------------------------------------------------|
G|-6-6-6-6-6-6-6-6-6-6-6-6-6-6-6-6---------------------------------|
D|-6-6-6-6-6-6-6-6-6-6-6-6-6-6-6-6-7-7-7-7-7-7-7-7-6-6-6-6-6-6-6-6-|
A|-4-4-4-4-4-4-4-4-4-4-4-4-4-4-4-4-7-7-7-7-7-7-7-7-6-6-6-6-6-6-6-6-|
E|---------------------------------5-5-5-5-5-5-5-5-4-4-4-4-4-4-4-4-|


Interlude 2x
e|---------------------------------------------------|
B|---------------------------------------------------|
G|-6~-6-6---------------------------4----------------|
D|-6~-6-6--6~-6-6--4~-4-4--2--4--6--4----------------|
A|-4~-4-4--6~-6-6--4~-4-4--2--4--6--2----------------|
E|---------4~-4-4--2~-2-2--0--2--4-------------------|


Guitar Solo 6x
e|-9~~-12~~-11~~------9------------------------------|
B|---------------12~~---9------12~~-9~~--------------|
G|------------------------11~~----------8-9----------|
D|------------------------------------------11~~-----|
A|---------------------------------------------------|
E|---------------------------------------------------|

"Untold
 Unseen
 Unfazed
 Unclean
 Unsaid
 Unkind
 Undead
 Unwind"

Chorus 3 3x
e|-----------------------------------------------------------------|
B|-----------------------------------------------------------------|
G|-6-6-6-6-6-6-6-6-6-6-6-6-6-6-6-6---------------------------------|
D|-6-6-6-6-6-6-6-6-6-6-6-6-6-6-6-6-2-2-2-2-2-2-2-2-6-6-6-6-6-6-6-6-|
A|-4-4-4-4-4-4-4-4-4-4-4-4-4-4-4-4-2-2-2-2-2-2-2-2-6-6-6-6-6-6-6-6-|
E|---------------------------------0-0-0-0-0-0-0-0-4-4-4-4-4-4-4-4-|

e|-----------------------------------------------------------------|
B|-----------------------------------------------------------------|
G|-6-6-6-6-6-6-6-6-6-6-6-6-6-6-6-6---------------------------------|
D|-6-6-6-6-6-6-6-6-6-6-6-6-6-6-6-6-7-7-7-7-7-7-7-7-6-6-6-6-6-6-6-6-|
A|-4-4-4-4-4-4-4-4-4-4-4-4-4-4-4-4-7-7-7-7-7-7-7-7-6-6-6-6-6-6-6-6-|
E|---------------------------------5-5-5-5-5-5-5-5-4-4-4-4-4-4-4-4-|

Main Riff 4x
e|---------------------------------------------------|
B|---------------------------------------------------|
G|-6~~~~~~~~~~~~-------------------------------------|
D|-6~~~~~~~~~~~~-----------------8-8-9-9-11-11-13-13-|
A|-4~~~~~~~~~~~~-7-7-6-6-4-4-2-2-6-6-7-7-9--9--11-11-|
E|---------------5-5-4-4-2-2-0-0---------------------|


Outro
Part 1 2x
e|---------------------------------------------------|
B|---------------------------------------------------|
G|---------------------------------------------------|
D|-----------------8-8-9-9-11-11-13-13---------------|
A|-7-7-6-6-4-4-2-2-6-6-7-7-9--9--11-11---------------|
E|-5-5-4-4-2-2-0-0-----------------------------------|

Part2
e|---------------------------------------------------|
B|---------------------------------------------------|
G|-6~~~~~~~~~~~~~~~~~~~~~~~~~~~~~~~~-----------------|
D|-6~~~~~~~~~~~~~~~~~~~~~~~~~~~~~~~~-----------------|
A|-4~~~~~~~~~~~~~~~~~~~~~~~~~~~~~~~~-----------------|
E|---------------------------------------------------|

************************************

| /   slide up
| \   slide down
| h   hammer-on
| p   pull-off
| ~   vibrato
| +   harmonic
| x   Mute note
| b   Bend
| pb  Pre-bend
| br  Bend release
| pbr Pre-bend release
| brb Bend release bend

************************************
Tap to rate this tab
 
# A B C D E F G H I J K L M N O P Q R S T U V W X Y Z