Song name
# A B C D E F G H I J K L M N O P Q R S T U V W X Y Z

The Dauntless Elite - Energy Kids Rule Forever tab

-----------------------------------------------------------------------------
                 The Dauntless Elite - Energy Kids Rule Forever
-----------------------------------------------------------------------------
Tabbed by: rob
Email: brainwashed_monkey@hotmail.com

Tuning:EADGBe

verse
e|--------------------------------------------------------|
B|--------------------------------------------------------|
G|--66666---6-8-9999999999--66666----6-8-99999------------|
D|--66666-6-6-8-9999999999--66666-6--6-8-99999-99999------|
A|--44444-6-4-6-7777777777--44444-6--4-6-77777-99999------|
E|--------4---------------------- 4------------77777------|

bridge
e|--------------------------------------------------------|
B|--------------------------------------------------------|
G|---------------xx9xx9xx9xx9---------------66--------44--|
D|--xx7xx7xx7xx7-xx9xx9xx9xx9-xx9xx9xx9xx9--66-22-66--44--|
A|--xx7xx7xx7xx7-xx7xx7xx7xx7-xx9xx9xx9xx9--44-22-66--22--|
E|--xx5xx5xx5xx5--------------xx7xx7xx7xx7-----00-44------|

chorus
e|--------------------------------------------------------|
B|--------------------------------------------------------|
G|---------------999999999999-----------------------------|
D|--777777777777-999999999999-999999999999-99-------------|
A|--777777777777-777777777777-999999999999-99-------------|
E|--555555555555--------------777777777777-77-------------|

one minute warning:
look out below, she's gunna blow!
trouble sweetly brewing
so drink up and take some energy when we go
one minute warning:
look out below, she's gunna blow!
trouble sweetly brewing
so pull your socks up, girl

don't ever let go, you're just a stone's throw
from our bus stop fight club disco
dance off till our shoes melt - we're away!
fuck 'em all, who the fuck's real anyway?

our houses on fire
eyes swell, first light desire
it's not for the faint hearted
hold tight, we just got started!

thirty second warning...


| /  slide up
| \  slide down
| pm palm mute
| h  hammer-on
| p  pull-off
| ~  let ring
| +  harmonic
| x  Mute note
=============================================================================

http://www.thedauntlesselite.com/
Tap to rate this tab
# A B C D E F G H I J K L M N O P Q R S T U V W X Y Z