Song name
# A B C D E F G H I J K L M N O P Q R S T U V W X Y Z

The Daybridges - Shes A Liar tab

the other guy is close but this is the correct parts. i talked to the guy who wrote the song

Intro

FIRST GUITAR
e|-------------------------------------------------------------------------|
B|-------------------------------------------------------------------------|
G|-------------------------------------------------------------------------|
D|-------------------------77----------------------------------------------|
A|-7---7-10-7------77-1010----10-7---7-10-7------7-7-1010-10---------------|
E|------------10-7--------------------------10-7---------------------------|
                                                                   x 5
 

SECOND GUITAR
e|-------------------------------------------------------------------------|
B|-------------------------------------------------------------------------|
G|-------------------------------------------------------------------------|
D|-------------------------99----------------------------------------------|
A|-9---9-12-9------99-1212----12-9---9-12-9------9-9-1212-12---------------|
E|------------12-9--------------------------12-9---------------------------|
                                                                   x 5

Bridge

e|-------------------------------------------------------------------------|
B|-12-1214-1514--12-1214-1514--12-1214-1514--12-1214-1514------------------|
G|-12-1214-1514--12-1214-1514--12-1214-1514--12-1214-1514------------------|
D|-------------------------------------------------------------------------|
A|-------------------------------------------------------------------------|
E|-------------------------------------------------------------------------|

Chorus

e|-------------------------------------------------------------------------|
B|-12-10-------------------------------------------------------------------|
G|-12-10-------------------------------------------------------------------|
D|--------12-10------------------------------------------------------------|
A|--------12-10--12-12-12-12-12-12-----------------------------------------|
E|---------------10-10-10-10-10-10-----------------------------------------|


its missing a few notes but if you play that its close enough.

jack heather
Tap to rate this tab
# A B C D E F G H I J K L M N O P Q R S T U V W X Y Z