The Daylights - Quick Fix tab

e---------------------------------------|
B----1-------------1--------------------|
G------------0-------------0------------|
D--------2------2-----2-------2---------|
A----3--------------3-------------------|
E---------------------------------------|

(C) I want something that lasts forever

e---------------------------------------|
B----1-------------1--------------------|
G------------0-------------0------------|
D--------2------2-----2-------2---------|
A----0--------------3-------------------|
E---------------------------------------|

(C) You just want a quick fix

I'm looking for something to blow my cover
you don't want to to take a risk

I, so this goodbye
I want something that lasts forever
You just want a shallow head

I want someone that feels like home
when you were young and ran away
I wanna get back to the place I know
you just wanna fake a name

I, so this is goodbye
I want someone that feels like home,
you just wanna play games

e---------------------------------------|
B----1-------------1--------------------|
G------------2-------------2------------|
D--------2------2-----2-------2---------|
A----0--------------0-------------------|
E---------------------------------------|

(Am) So throw away your cheap champagne

e---------------------------------------|
B----0-------------0--------------------|
G------------0-------------0------------|
D--------2------2-----2-------2---------|
A----2--------------2-------------------|
E---------------------------------------|

(Em) and sleeping pills, and fake friends, cocaine

e---------------------------------------|
B----1-------------1--------------------|
G------------2-------------2------------|
D--------2------2-----2-------2---------|
A----0--------------0-------------------|
E---------------------------------------|

(Am) And light a match in kerosene

e---------------------------------------|
B----0-------------0--------------------|
G------------0-------------0------------|
D--------2------2-----2-------2---------|
A----2--------------2-------------------|
E---------------------------------------|

(Em) And let it burn,

e---------------------------------------|
B----2-------------2--------------------|
G------------0-------------0------------|
D--------0------0-----0-------0---------|
A----2--------------2-------------------|
E---------------------------------------|

(G) let it burn, for me, please

I want someone to look in their eye
but you would only see yourself
I want to live before I die
you wish you were someone else

I, so this is goodbye
I want something that lasts forever
You just want a quick fix


- - - - -

The general chords are definitely correct. The fingerpicking for the verses sounds
correct when played with the song, but the bridge is just a clusterfuck (someone
please correct it if you can!). Anywho, I think the Daylights deserved a quick fix
tab on here. This song is so heartwrenching.
Tap to rate this tab
 
# A B C D E F G H I J K L M N O P Q R S T U V W X Y Z