Song name
# A B C D E F G H I J K L M N O P Q R S T U V W X Y Z

The Days - Never Give Up tab

The Days - Never Give Up
standard tuning

e-------------------------------------------------------|
B------8---8------8/10-8--------------------------------|
G--7/9---9---9-7~--------9--7---------------------------| x2 muted 
D-------------------------------------------------------|
A-------------------------------------------------------|
E-------------------------------------------------------|


e-------------------------------------------------------|
B------8---8-----8/10-8---------------------------------|
G--7/9---9---9-7--------9--7----------------------------| then carry on but 
D-------------------------------------------------------| not muted
A-------------------------------------------------------|
E-------------------------------------------------------|


Hey ive only managed to work out the intro from the small clip on their website.
Might be using a wah wah pedal but im not sure try it out, leave comments on how it works.
Tap to rate this tab
# A B C D E F G H I J K L M N O P Q R S T U V W X Y Z