Song name
# A B C D E F G H I J K L M N O P Q R S T U V W X Y Z

The Dead 60s - Riot Radio tab

-------------------------------------------------------------------------------
			     Riot Radio - Dead 60s
                           http://www.thedead60s.com/
-------------------------------------------------------------------------------
Tabbed by: Alex Branchini

Tuning: EADGBE

Riff 1

Guitar 1
e|--3-3-3-3-3------------3-3-3-3-3-3--------------------|
B|--4-4-4-4-4------------4-4-4-4-4-4--------------------|
G|--5-5-5-5-5------------5-5-5-5-5-5--------------------|
D|--5-5-5-5-5------------5-5-5-5-5-5--------------------|
A|--3-3-3-3-3------------3-3-3-3-3-3--------------------|
E|------------------------------------------------------|

Guitar 2
e|------------------------------------------------------|
B|------------------------------------------------------|
G|-------------0-3-0------------------------------------|
D|-------------------1----------------3-5---------------|
A|----------------------------------------6-3-----------|
E|------------------------------------------------------|

Riff 2

Guitar 1
e|--8--8--8--8--8-----8--8--8--8--8---------------------|
B|--9--9--9--9--9-----9--9--9--9--9---------------------|
G|--10-10-10-10-10----10-10-10-10-10--------------------|
D|--10-10-10-10-10----10-10-10-10-10--------------------|
A|--8--8--8--8--8-----8--8--8--8--8---------------------|
E|------------------------------------------------------|

Guitar 2
e|------------------------------------------------------|
B|------------------------------------------------------|
G|------------------------------------------------------|
D|------------------------------------------------------|
A|--8-8-8-9-8-8-8-9-8-8-8-9-8-8-8-9---------------------|
E|------------------------------------------------------|

riff 1 for intro and verses, riff 2 for the courus

| /  slide up
| \  slide down
| h  hammer-on
| p  pull-off
| ~  vibrato
| +  harmonic
| x  Mute note
===============================================================================
Tap to rate this tab
# A B C D E F G H I J K L M N O P Q R S T U V W X Y Z