Song name
# A B C D E F G H I J K L M N O P Q R S T U V W X Y Z

The Dead Formats - One Of The Faces tab

Hey guys, simple song really

this is the dead formats again, there awesome

Standard tuneing(E-A-D-G-B-e)

Intro/Main riff
e(-x-x-x-----------------------)
B(-x-x-x-----------------------)
G(-x-x-x-----------------------)
D(-x-x-x-7-7-7-----------------)
A(-x-x-x-5-5-5-3-3-3-3-3-3-5-5-)
E(-x-x-x-------1-1-1-1-1-1-3-3-)



e(-x-x-x-----------------------)
B(-x-x-x-----------------------)
G(-x-x-x-----------------------)
D(-x-x-x-7-7-7-------------5-5-)
A(-x-x-x-5-5-5-3-3-3-3-3-3-3-3-)
E(-x-x-x-------1-1-1-1-1-1-----)- keep repeateing both until you get to the part under this.

e(---------------------------------)
B(---------------------------------)
G(---------------------------------)
D(-----------------5-5-5-5-5-5-5-5-)
A(-3-3-3-3-3-3-3-3-3-3-3-3-3-3-3-3-)
E(-1-1-1-1-1-1-1-1-----------------)


Thanks please rate.
Tap to rate this tab
# A B C D E F G H I J K L M N O P Q R S T U V W X Y Z