Song name
# A B C D E F G H I J K L M N O P Q R S T U V W X Y Z

The Dead Formats - The Dead Formats tab

The Dead Formats
The Dead Formats
-------------------

Standard tuneing(E-A-D-G-B-e)
Simple once you get your head around the riff.

Intro main riff(this is used pretty much all of the song)

e(-------------------------)
B(-------------------------)
G(-------------------------)
D(-6-888-------6-888-------)
A(-4-666-8-8-8-4-666-8-8-8-)
E(-------6-6-6-------6-6-6-)

e(---------------------------)
B(---------------------------)
G(---------------------------)
D(-6-6-6-6-6-6-6-6-------8-6-)
A(-4-4-4-4-4-4-4-4-6-6-6-6-4-)
E(-----------------4-4-4-----)

e(-----------------------------------------)
B(-----------------------------------------)
G(-/7-7-7-7-7-7-7-9-9-9-9-9-9-9-11-11-11-11)
D(-----------------------------------------)
A(-----------------------------------------)
E(-----------------------------------------)

e(----------------------------)   
B(----------------------------)    
G(----------------------------)   
D(-9-9-9-9-11-11-11-11-12-10-8)  
A(----------------------------) 
E(----------------------------)Repeat both until it comes to this part...

e(------------------)
B(------------------)
G(-9/12-12-10-8-----)
D(------------------)
A(------------------)
E(------------------)X2

e(---------------------------------------------------)
B(-88888888-1010101010101010-1111111111111111-12^(14))
G(---------------------------------------------------)
D(---------------------------------------------------)
A(---------------------------------------------------)
E(---------------------------------------------------)

e(-----------------------------)
B(-----------------------------)
G(-----------------------------)
D(-----------------------------)
A(-----------------------------)
E(Pick--Slide--to--finish--solo)


--------------------------------------------------------------------------
Dirty White Shoes


Standard Tuning(E-A-D-G-B-e)

Intro/Main Riff:
e[--------------------------------------------]
B[--------------------------------------------]
G[--------------------------------------------]
D[-7-7-7/10-10-10\5-5-5/7-5-33333333/5/777\555]
A[-7-7-7/10-10-10\5-5-5/7-5-33333333/5/777\555]
E[--------------------------------------------]X3


Verse:
e[---------------------------------------]
B[---------------------------------------]
G[---------------------------------------]
D[---------------------------------------]
A[---------------------------------------]
E[-777777777777777-10101010-3333-10101010]
    ...............  ....... ...  ......  |Palm Mute|

Pre-Chorus:
e[-------------------------------------------------------------------]
B[-------------------------------------------------------------------]
G[-------------------------------------------------------------------]
D[-7777777777777777-10101010101010101010101010101010-1212121212121212]
A[-7777777777777777-10101010101010101010101010101010-1212121212121212]
E[-7777777777777777-10101010101010101010101010101010-1212121212121212]

Back to chorus(Main Riff):
e[--------------------------------------------]
B[--------------------------------------------]
G[--------------------------------------------]
D[-7-7-7/10-10-10\5-5-5/7-5-33333333/5/777\555]
A[-7-7-7/10-10-10\5-5-5/7-5-33333333/5/777\555]
E[--------------------------------------------]
---------------------------------------------------------------------------
Step It Up

Guitar 1/Intro
e[------7777------77-777]
B[-55/7-7777-55/7-77-777]
G[-55/7------55/7-------]
D[----------------------]
A[----------------------]
E[----------------------]

Guitar 2/ Intro
e[----------]
B[-5-5-5-5--]
G[-5-5-5-5--]
D[----------]
A[----------]
E[----------](This guitar just keeps the beast of the song)

--------------------------------------------------------------------------
One of the faces

Standard tuneing(E-A-D-G-B-e)

Intro/Main riff
e(-x-x-x-----------------------)
B(-x-x-x-----------------------)
G(-x-x-x-----------------------)
D(-x-x-x-7-7-7-----------------)
A(-x-x-x-5-5-5-3-3-3-3-3-3-5-5-)
E(-x-x-x-------1-1-1-1-1-1-3-3-)



e(-x-x-x-----------------------)
B(-x-x-x-----------------------)
G(-x-x-x-----------------------)
D(-x-x-x-7-7-7-------------5-5-)
A(-x-x-x-5-5-5-3-3-3-3-3-3-3-3-)
E(-x-x-x-------1-1-1-1-1-1-----)- keep repeateing both until you get to the part under this.

e(---------------------------------)
B(---------------------------------)
G(---------------------------------)
D(-----------------5-5-5-5-5-5-5-5-)
A(-3-3-3-3-3-3-3-3-3-3-3-3-3-3-3-3-)
E(-1-1-1-1-1-1-1-1-----------------)

---------------------------------------------------------------------------
Stop Talking, Start Dancing

Standard tuning(E-A-D-G-B-e)

Intro|Its actually a bass part playing so yeah|
e|------------------------|
B|------------------------|
G|------------------------|
D|------------------------|
A|-----1h3-0h2------------|
E|-1-1---------0-0-2-1-1-3|Repeat until it stops

--------------------------------------------------------------------------

Wind Up
Standard tuneing(E-A-D-G-B-e)

Intro(clean)
e(--------------------------------)
B(--------------------------------)
G(--------------------------------)
D(-7-7-7-10-10-10-5-5-5-5-5-5-3-3-)
A(-5-5-5-8--8--8--3-3-3-3-3-3-1-1-)
E(--------------------------------)


(Put on distortion)
e(--------------------------------)
B(--------------------------------)
G(--------------------------------)
D(-7-7-7-10-10-10-5-5-5-5-5-5-3-3-)
A(-5-5-5-8--8--8--3-3-3-3-3-3-1-1-)
E(--------------------------------)

----------------------------------------------------------------------------

...Yeah so that's finally it, please rate and feel free to comment


Tap to rate this tab
# A B C D E F G H I J K L M N O P Q R S T U V W X Y Z