Song name
# A B C D E F G H I J K L M N O P Q R S T U V W X Y Z

The Dead Pets - Uncle Festa tab

The dead pets - uncle festa

Tabbed by dirtybogroll

this is one of my favourite songs by the dead pets, and i havent seen any tabs for it 
this is my first tab, so any pointers/ corrections please let me know at dirtybogroll@cwgsy.net

Intro
e|----------------------------------------------------|
B|----------------------------------------------------|
G|---------7-7-7-7------------------------------------|
D|-7-7-7-7-7-7-7-7-7-7-7-7-7-7-7-7--------------------|
A|-7-7-7-7-5-5-5-5-7-7-7-7-7-7-7-7--------------------|
E|-5-5-5-5---------5-5-5-5-5-5-5-5--------------------|

chorus riff

e|----------------------------------------------------|
B|----------------------------------------------------|
G|----------7-xxxxxx----------------------------------|
D|-7-xxxxxx-7-xxxxxx-7-xxxxxx-7-xxxxxx----------------|
A|-7-xxxxxx-5-xxxxxx-7-xxxxxx-7-xxxxxx----------------|
E|-5-xxxxxx----------5-xxxxxx-5-xxxxxx----------------|

post chorus (the lyrics start woooah) ivve heard the song you'll understand

e|----------------------------------------------------|
B|----------------------------------------------------|
G|---------7-7-7-7-6-6-6-6-9-9-9-9--------------------|
D|-7-7-7-7-7-7-7-7-6-6-6-6-9-9-9-9--------------------|
A|-7-7-7-7-5-5-5-5-4-4-4-4-7-7-7-7--------------------|
E|-5-5-5-5--------------------------------------------|

and finally the cool riff near the end (starts at 1min 34) keep playing this riff till 
end of the song

e|----------------------------------------------------|
B|----------------------------------------------------|
G|-6-6-6-6-9-9-9-9-8-8-8-8-11-11-11-11----------------|
D|-6-6-6-6-9-9-9-9-8-8-8-8-11-11-11-11----------------|
A|-4-4-4-4-7-7-7-7-6-6-6-6-9--9--9--9-----------------|
E|----------------------------------------------------|

they sounds like there could be a couple of muted strums during this bit, but i cant be 
to tab them out. listen to the song to get how many times you play each section. enjoy

www.thedeadpets.co.uk
Tap to rate this tab
# A B C D E F G H I J K L M N O P Q R S T U V W X Y Z