Song name
# A B C D E F G H I J K L M N O P Q R S T U V W X Y Z

The Dead Revolt - The Kronos Gyros Mating Ritual tab

Intro

E|---------------4------------------4-------9--------12--|
B|-4-4-4---0-4-7---7--4-4-4---0-4-7---0-7-9---0-9-12-----|
G|-4-4-4--------------4-4-4------------------------------|
D|-2-2-2--------------2-2-2------------------------------|
A|-4-4-4--------------4-4-4------------------------------|
E|-------------------------------------------------------|



E|---------------4------------------4-------9--------12--|
B|-7-7-7---0-4-7---0--7-7-7---0-4-7---0-7-9---0-9-12-----|
G|-8-8-8--------------8-8-8------------------------------|
D|-9-9-9--------------9-9-9------------------------------|
A|-7-7-7--------------7-7-7------------------------------|
E|-------------------------------------------------------|

Driving Crazy (3:15)

E|-------------------------------------------------|
B|-------4-------------7---------------------------|
G|-8--4--4-------8--4--8---------------------------|
D|-6--4--2-------6--4--6---------------------------|
A|-7--2--4-------7--2--7---------------------------|
E|-------------------------------------------------|



(4:39)

E|-------------------------------------------------------|
B|----------5-4--------------------------5-4-------------|
G|------------------------6-6-6--------------------------|
D|--------6-6-5---------6-6-6-6--------6-6-5---------6-4-|
A|------------------------4-4-4------------------------4-|
E|-0-2-3-4-------0-2-3-4--------0-2-3-4-------0-2-3-4--2-|
Tap to rate this tab
 
# A B C D E F G H I J K L M N O P Q R S T U V W X Y Z