Song name
# A B C D E F G H I J K L M N O P Q R S T U V W X Y Z

The Dead Weather - Hang You From The Heavens tab

-------------------------------------------------------------------------------
			     The Dead Weather - Hang You From The Heavens
-------------------------------------------------------------------------------

thedeadweather.com
Tuning: Standard
Tabbed By Apcud7

Very easy song by Jack's new band with just E and G throughout the verse. You can play 
single string or the power chords.

   E   G   E   G  E  G
e|---------------------------------------------------------------------------|
B|---------------------------------------------------------------------------|
G|---------------------------------------------------------------------------|
D|---------------------------------------------------------------------------|
A|---------------------------------------------------------------------------|
E|-0---3---0---3--0--3-------------------------------------------------------|


Chorus:

e|---------------------------------------------------------------------------|
B|---------------------------------------------------------------------------|
G|-2--2-2----6---------------------------------------------------------------|
D|-2--2-2----6--6--10--10---9---7---2----------------------------------------|
A|-0--0-0----4--6--10--10---9---7---2----------------------------------------|
E|--------------4---8---8---7---5---0----------------------------------------|


Verse: Sometimes throughout the later verse they play this

e|---------------------------------------------------------------------------|
B|---------------------------------------------------------------------------|
G|-----0--------0--------0---------------------------------------------------|
D|-2---5-4--2---5b---2---5b-4------------------------------------------------|
A|-2---5----2--------2-------------------------------------------------------|
E|-0---3----0--------0-------------------------------------------------------|
Tap to rate this tab
# A B C D E F G H I J K L M N O P Q R S T U V W X Y Z