Song name
# A B C D E F G H I J K L M N O P Q R S T U V W X Y Z

The Dead Weather - Child Of A Few Hours tab

I haven't done any tabs before but I'm bored and jamming with this song so here is
close to the song's general idea. Probably pretty inaccurate.
I'm playing in standard tuning.
Here is the link to the live version I'm building this from 
http://www.youtube.com/watch?v=kafnBNFM5LM

|-0---0---0---0--|
|-0---0---0---0--|
|-0---0---0---0--| X3
|----------------| it sounds like up picking that's quickly muted.
|----------------|
|----------------|

|-0----------------------|
|-0-0h3p0----------------|
|-0-------2p0------------| X16
|-------------2--2--0--2-|
|------------------------|
|------------------------|

Now something to the effect of

|----0---------0----/12\--17-|
|----0---------0----/12\--17-|
|-1--0--0-0-x--0----/12\--17-|
|-2-----2-2-x----------------|
|-2-----2-2-x----------------|
|-0-----0-0-x----------------|

Then back to

|-0----------------------|
|-0-0h3p0----------------|
|-0-------2p0------------| X12
|-------------2--2--0--2-|
|------------------------|
|------------------------|

And this again

|----0---------0----/12\--17-|
|----0---------0----/12\--17-|
|-1--0--0-0-x--0----/12\--17-|
|-2-----2-2-x----------------|
|-2-----2-2-x----------------|
|-0-----0-0-x----------------|

Again

|-0----------------------|
|-0-0h3p0----------------|
|-0-------2p0------------| X2
|-------------2--2--0--2-|
|------------------------|
|------------------------|

Now into what I'm considering to be the solo (but the majority is three notes with some
with it or expand it with the Em pentatonic)

|----------------------------------------------------------|
|----------------------------------------------------------|
|-----12----12h14-12--14-12--14bp12--12-----12--14--12-----|
|-/14----14------------------------14----14-------------14-|
|----------------------------------------------------------|
|----------------------------------------------------------|

|-----------------------|
|-----------------------|
|-14b--12--14bp12-------|
|-----------------14-14-|
|-----------------------|
|-----------------------|

|----------------------------------------------------------|
|----------------------------------------------------------|
|-----12----12h14-12--14-12--14bp12--12-----12--14--12-----|
|-/14----14------------------------14----14-------------14-|
|----------------------------------------------------------|
|----------------------------------------------------------|

|----------------------------|
|----------------------------|
|----------------------------|
|-12/14-12-12h14p12h14-------|
|----------------------14-12-|
|----------------------------|

|-------------------------------------------|
|-------------------------------------------|
|--------------------14b-12-14bp12----------|
|-------12-14bp12------------------14-12h14-|
|-12/14-----------14------------------------|
|-------------------------------------------|

|----------------------------|
|----------------------------|
|----12---12h14-12-----------|
|-14---14---------14-12------|
|----------------------------|
|-----------------------12/0-|

now return to

|-0---0---0---0--|
|-0---0---0---0--|
|-0---0---0---0--| X2
|----------------|
|----------------|
|----------------|

|----------------------|-------------------------------|
|-3p0------------------|-------------------------------|
|-----2p0--------------|------------12-12h14b(sustain)-|
|-----------2(sustain)-|-2/12-12h14--------------------|
|---------0------------|-------------------------------|
|----------------------|-------------------------------|

|-----------------------|-----------------------|----------------------|
|-----------------------|-----------------------|----------------------|
|-14bp12----------------|-------12-14b(sustain)-|-12-12h14p12(sustain)-|
|--------14-14(sustain)-|-12-12-----------------|----------------------|
|-----------------------|-----------------------|----------------------|
|-----------------------|-----------------------|----------------------|

|---------------------|------------------------|---------------|
|-15b-15r-15b(sustain)|-15-12------------------|---------------|
|---------------------|-------14b-14b(sustain)-|-12-12(sustain)|
|---------------------|------------------------|---------------|
|---------------------|------------------------|---------------|
|---------------------|------------------------|---------------|

|-------------------------|
|-------------------------|
|-14-12-------------------|
|--------14p12h14(sustain)|
|-------------------------|
|-------------------------|

I think he plays it up at the twelfth fret using Em pentatonic but this feels more
to me. He also seems to stutter with this riff to his liking sometimes only playing a 
or
of it and sometimes changing the last note.(and it speeds up during the last few times 
played through)
|-----------|-------------|
|-3-3-------|-3-3---------|
|-----4p2p0-|-----4p2p0---| X12
|-----------|-----------2-|
|-----------|-------------|
|-----------|-------------|

|-0---0---0---0--|
|-0---0---0---0--|
|-0---0---0---0--|
|----------------| X1
|----------------|
|----------------|

|-0----------------------|
|-0-0h3p0----------------|
|-0-------2p0------------| X16
|-------------2--2--0--2-|
|------------------------|
|------------------------|

|----0---------0----/12\--17-|
|----0---------0----/12\--17-|
|-1--0--0-0-x--0----/12\--17-|
|-2-----2-2-x----------------|
|-2-----2-2-x----------------|
|-0-----0-0-x----------------|

|-0----------------------|
|-0-0h3p0----------------|
|-0-------2p0------------| X2
|-------------2--2--0--2-|
|------------------------|
|------------------------|

|-0---0---0---0--|
|-0---0---0---0--|
|-0---0---0---0--|
|----------------| X3
|----------------|
|----------------|

Enjoy, and remember to pick up Horehound I believe July 14th in the U.S. and see The
Weather when they come to a town near you. I can't wait for Portland.
Tap to rate this tab
# A B C D E F G H I J K L M N O P Q R S T U V W X Y Z