Song name
# A B C D E F G H I J K L M N O P Q R S T U V W X Y Z

The Dead Weather - I Cut Like A Buffalo tab

Intro/Verse:
e---------------------------------------------------------------------------|
b---------------------------------------------------------------------------|
g---------------------------------------------------------------------------|
d---------------------------------------------------------------------------|
a--5p3h5---5p3h5---5p3h5---5p3h5---5p3h5---5p3h5---5p3h5---5p3h5------------|
e---------------------------------------------------------------------------|

Chorus/Bridge:
e---------------------------------------------------------------------------|
b------------13-------------------------------------------------------------|
g--14---12---12---10---------------8---5---8---5---11---10------------------|
d--14---12---10---10---------------8---5---8---5---11---10------------------|
a--12---10--------8----5p3h5-------6---3---6---3---9----8----5p3h5----------|
e---------------------------------------------------------------------------|

Breaks (w/ keyboard parts):
e----------------------------------------------------------------------------|
b----------------------------------------------------------------------------|
g----------------------------------------------------------------------------|
d----------------------------------------------------------------------------|
a--5p3-------5p3-----------------5-8-7-5/17---5p3-----5p3-----5p3-----5p3----|
e------6-5-------6-5-3-3/5---5h7------------------6p5-----6p5-----6p5----6p5-|
Tap to rate this tab
# A B C D E F G H I J K L M N O P Q R S T U V W X Y Z