Song name
# A B C D E F G H I J K L M N O P Q R S T U V W X Y Z

The Dead Weather - Rocking Horse tab

This is actually played on bass but here it is!
-----------------------|---------------------|
-----------------------|---------------------|
-----------------------|---------------------| x12
-------2---------------|------0--------------|
----2-----2------------|---2-----2-----------|
-0---------------------|-3------------3--2---|

Riff's Played in verse
--------3-----7------|
---5-----------------|
---------------------|
---------------------|
---------------------|
---------------------|

---------------------|
---------------------|
---------------------|
---------------------|
---------------------|
--7---3--2--0--------|

Chorus Riff
--------------------------------------------------------------------|
-2------2---3---7---------------------------------------------------|
--------------------------------------------------------------------|
-4------4---5---9---------------------------------------------------|
-4------4---5---9---------2---2-2-0-2-3-2-0-2--222-0-2-3-2-0---0----|
-------------------------------------------------------------3---3-0|
Tap to rate this tab
 
# A B C D E F G H I J K L M N O P Q R S T U V W X Y Z