Song name
# A B C D E F G H I J K L M N O P Q R S T U V W X Y Z

The Dead Weather - 60 Feet Tall tab

Basically worked out by ear, so there could easily be a few mistakes.

Intro
e------------------------------|
b------------------------------|
g------------------------------| X 16
d-------3h5p3----------10------|
a---5-------------/10-------8~-|
e------------------------------|

Then there is a two bar break then back into the intro but with a slight change.

e------------------------------|----------------------------------|
b------------------------------|----------------------------------|
g------------------------------|----------------------------------|
d-------3h5p3----------10------| ------3h5p3-----------10---12~---|
a---5-------------/10-------8~-|---5-------------/10--------------|
e------------------------------|----------------------------------|

e------------------------------|----------------------------------|
b------------------------------|----------------------------------|
g------------------------------|----------------------------------| X2
d-------3h5p3----------10------|-------3h5p3-----------10---------|
a---5-------------/10-------8~-|---5-------------/10---------8~---|
e------------------------------|----------------------------------|

e------------------------------|
b------------------------------|
g------------------------------|
d------------------------------| Try and get some feed back on this last bar
a---/12~-----12b13-------------|
e------------------------------|

There is also a slight change to the main riff about 2:30 throught the song which goes.

e----------------------------------|
b----------------------------------|
g----------------------------------|
d-------3h5p3--------------10h12---|
a---5-------------/10h12-----------|
e----------------------------------|

I will tab out the solo when i've worked it our fully and well enough. Hope this help 
who needs it.
Tap to rate this tab
 
# A B C D E F G H I J K L M N O P Q R S T U V W X Y Z