Song name
# A B C D E F G H I J K L M N O P Q R S T U V W X Y Z

The Dead Weather - Die By The Drop tab

-------------------------------------------------------------------------------
			     DIE BY THE DROP - The Dead Weather
-------------------------------------------------------------------------------
Tabbed by: fid3l
Email: blackstripes3 at gmail.com

Tuning: Standard

Intro [Piano]

e|---------------------------------------------------------------------------|
B|---------------------------------------------------------------------------|
G|---9----9----9----9----9----9----------------------------------------------|
D|---------------------------------------------------------------------------|
A|---7----7----7----7----7----7----------------------------------------------|
E|---------------------------------------------------------------------------|

Intro 0:06 [Guitar]

e|----12~----------------------------------------12~-------------------------|
B|---------------------------------------------------------------------------|
G|---------------------------------------------------------------------------|
D|---------------------------------------------------------------------------|
A|---------------------------------------------------------------------------|
E|---------------------------------------------------------------------------|

Intro 0:10 [Distorted Bass]

G|---------------------------------------------------------------------------|
D|---------------------------------------------------------------------------|
A|---7----7----7----7----7----7----------------------------------------------|
E|---------------------------------------------------------------------------|

      0:26 [Distorded Bass]
G|---------------------------------------------------------------------------|
D|---------------------------------------------------------------------------|
A|---10p7\5h7----7----7----7----7----7---------------------------------------|
E|---------------------------------------------------------------------------|

      0:35 [Guitar]

e|------/12------------------------------------------------------------------|
B|---------------------------------------------------------------------------|
G|-------------------------------------------br3p0---------------------------|
D|---------------------------------------------------------------------------|
A|---------------------------------------------------------------------------|
E|---------------------------------------------------------------------------|

      0:45 [Guitar]

e|---------------------------------------------------------------------------|
B|---------------------------------------------------------------------------|
G|---------------13----12-----------------13----12---------------------------|
D|---------12-14----14--------------12-14----14------------------------------|
A|---12/14--------------------12/14------------------------------------------|
E|---------------------------------------------------------------------------|

e|----------------------------------/12--------------------------------------|
B|---------------------------------------------------------------------------|
G|---------------13----12---------------------------------13----12-----------|
D|---------12-14----14------------------------------12-14----14--------------|
A|---12/14------------------------------------12/14--------------------------|
E|---------------------------------------------------------------------------|

Chorus 1:02 [Distorted Guitar] Repeat X4 

e|---------------------------------------------------------------------------|
B|--------------------------------15~----------------------------------------|
G|-----12p9----9------------12-14-------12b13--------------------------------|
D|----------12--------12/14----------14-------14-----------------------------|
A|---------------------------------------------------------------------------|
E|---------------------------------------------------------------------------|

e|---------------------------------------------------------------------------|
B|---------------------------------------------------------------------------|
G|---------------------------------------------------------------------------|
D|-----12p9----9-------------------------------------------------------------|
A|----------12---------------------------------------------------------------|
E|---------------------------------------------------------------------------|

Chorus 1:02 [Distorted Bass] Repeat X4

G|-------------------------7-------------------------------------------------|
D|-------------------5--7---------5------------------------------------------|
A|---10p7\5h7----/7------------7-----7---------------------------------------|
E|---------------------------------------------------------------------------|

And that's most to it folks rinse and repeat

************************************

| /   slide up
| \   slide down
| h   hammer-on
| p   pull-off
| ~   vibrato
| +   harmonic
| x   Mute note
| b   Bend
| pb  Pre-bend
| br  Bend release
| pbr Pre-bend release
| brb Bend release bend

************************************
Tap to rate this tab
# A B C D E F G H I J K L M N O P Q R S T U V W X Y Z