Song name
# A B C D E F G H I J K L M N O P Q R S T U V W X Y Z

The Dead Weather - Will There Be Enough Water tab

The Dead Weather - Will There Be Enough Water

It`s my first tab and I Think it`s good )))

Standart Tuning


     
|-----------------------------------------------------|
|-----------------------------------------------------|
|---2~--3\2-0---------2\3-0---------------------------|
|---0~--------3-2~----------3-------------------------|
|---------------3~--3---------2~---------0h2h3-2-0~---|
|-----------------------------3~-3~-3~-3--------------|

|-----------------------------------------------------|
|-----------------------------------------------------|
|---2~--3\2-0---------2\3-0---------------------------|
|---0~--------3-2~----------3-------------------------|
|---------------3~--3---------2~----------------------|
|-----------------------------3~----------------------|

|----------------------------------------------|
|----------------------------------------------|
|--------2h3p2---------------------------------|
|---3b-3-------h3p0h3p0~--0~-------------------|
|----------------------------------------------|
|----------------------------3~----------------|

It`s an idea, the most of song is improvisation ))



Solo First Part

Just this one scale

|-----------------------------------10--12--13-|
|------------------------10--12--13------------|
|-------------10--11--12-----------------------|
|------10--12----------------------------------|
|--12------------------------------------------|
|----------------------------------------------|

Solo Second Part

|-----------------------------------------------------------15--17--18---|
|-----------------------------------------------15--17--18---------------|
|-----------------------------------14--15--17---------------------------|
|-----------------------14--15--17---------------------------------------|
|---------------15--17---------------------------------------------------|
|---15--17--18-----------------------------------------------------------|





Made by Vyacheslav Mamchenko (Ukraine)
E-Mail: ackeypupseg@i.ua

Tap to rate this tab
 
# A B C D E F G H I J K L M N O P Q R S T U V W X Y Z