Song name
# A B C D E F G H I J K L M N O P Q R S T U V W X Y Z

The Dead Weather - Hustle And Cuss tab

The Dead Weather
Hustle and Cuss
Sea of Cowards

Standard Tuning

4 Measures of Bass/Drums

Intro/Chorus *Slightly Palm Muted*
|----------------|   |------------|
|----------------|   |------------|
|----------------|   |------------|
|----------------|   |------------|
|-77-5-7-7b-752--|x7 |-77-5-7-7b--|
|--------------0-|   |------------|

Intro End
|--------|
|--------|
|--------|
|-5-7-2~-|
|-5-7-2~-|
|-3-5-0~-|

Verse *Slightly Palm Muted*
|----------------|   |----------------|   |-----------|
|----------------|   |----------------|   |-----------|
|----------------|   |-99-7-9-9b-974--|   |-99-7-9-9b-|
|----------------|   |--------------2-|   |-----------|
|-77-5-7-7b-752--|x4 |----------------|x3 |-----------|
|--------------0-|   |----------------|   |-----------|

|---------|
|---------|
|---------|
|-5-7--2~-|
|-5-7--2~-|
|-3-5--0~-|

Chorus x1

Post Chorus/Verse 2
|----------------|
|----------------|
|-99-7-9-9b-974--|
|--------------2-|
|----------------|x7
|----------------|

|------|
|------|
|------|
|-5-7~-|
|-5-7~-|
|-3-5~-|

Chorus 2
|----------------|   |-----------|
|----------------|   |-----------|
|-99-7-9-9b-974--|   |-99-7-9-9b-|
|--------------2-|   |-----------|
|----------------|x7 |-----------|
|----------------|   |-----------|

|------|
|------|
|------|
|-5-7~-|
|-5-7~-|
|-3-5~-|

Organ Solo (8 Measures of Bass/Organ/Drums)

|----------------|
|----------------|
|----------------|
|----------------|
|-77-5-7-7b-752--|
|--------------0-|
                   x2
|----------------|
|----------------|
|----------------|
|----------------|
|-77-5-7-7b-7520-|
|----------------|

Post-Solo
|---------------------|
|---------------------|
|---------------------|
|---------------------|
|-7~-7~-7~-777-7~-777-|
|---------------------|

8 Measures of drums

Outro
|----------------|
|----------------|
|-99-7-9-9b-974--|
|--------------2-|
|----------------|x8
|----------------|


Tap to rate this tab
# A B C D E F G H I J K L M N O P Q R S T U V W X Y Z