Song name
# A B C D E F G H I J K L M N O P Q R S T U V W X Y Z

The Dead Weather - Hustle And Cuss tab

The Dead Weather - Hustle and Cuss

Tabbed By: Mark DiFranco

Tuning - E A D G B e


Main Riff:
e|--------------------------------------------------------------------| 
B|--------------------------------------------------------------------| 
G|--------------------------------------------------------------------| 
D|--------------------------------------------------------------------|
A|---7~--5-7--7~--5-7p5--------7~--5-7--7~--5-7p5---------------------| 
E|----------------------7-0-----------------------7-0-----------------|

e|--------------------------------------------------------------------| 
B|--------------------------------------------------------------------| 
G|--------------------------------------------------------------------| 
D|-------------------------------------------5---7--------------------|
A|---7~--5-7--7~--5-7p5--------7~--5-7--7~---5---7--------------------| 
E|----------------------7-0------------------3---5--------------------|


Keyboard Part (palm muted):
e|---2--2--2--2--2--2--2--2-------------------------------------------| 
B|---0--0--0--0--0--0--0--0-------------------------------------------| 
G|--------------------------------------------------------------------| 
D|--------------------------------------------------------------------|
A|--------------------------------------------------------------------| 
E|--------------------------------------------------------------------|

Other Riff:
e|--------------------------------------------------------------------| 
B|---5~0-3-5--5---3-5p3--------5~0-3-5--5~--3-5p3---------------------| 
G|----------------------4-------------------------4-------------------| 
D|------------------------2-------------------------2-----------------|
A|--------------------------------------------------------------------| 
E|--------------------------------------------------------------------|
Tap to rate this tab
# A B C D E F G H I J K L M N O P Q R S T U V W X Y Z