The Dead Weather - Rolling In On A Burning Tire tab

Band: The Dead Weather
Song: Rolling In On a Burning Tire
Tuning: Standard (EADGBE)
Awesome song I couldn’t find tabs for so made my own. Rate well!
Intro verse riff
(0.3-0.8)
E---------------------------------------------------------------------------|
A---------------------------------------------------------------------------|
D---------------------------------------------------------------------------|
G----2—0--------------------------------------------------------------------|
B------------2------0-----2-----3-----------3-----3-------2-----0----2------|
E------------------------------------------------------------------------0--|
(0.11-0.16)
E----------------------------------------------------------------------------|
A----------------------------------------------------------------------------|
D----------------------------------------------------------------------------|
G----2—0----------------------------------------------------------------2----|
B------------2------0-----2-----3-----------3-----3-------2-----0----2-------|
E----------------------------------------------------------------------------|
Chorus played by piano except for the distorted chords
E----------------------------------------------------------------------------|
A----------------------------------------------------------------------------|
D----------------------------------------------------------------------------|
G----------------------------------------------------------------------------|
B----1h2--------1h2--------------2h3----------2h3------------1h2---------1h2-|
E----------------------------------------------------------------------------|
Just repeat the riff during the verse and your done!
Tap to rate this tab
 
# A B C D E F G H I J K L M N O P Q R S T U V W X Y Z