Song name
# A B C D E F G H I J K L M N O P Q R S T U V W X Y Z

The Dead Weather - No Horse tab

-----------------------------------------------------------------------------
			     No Horse - The Dead Weather
-----------------------------------------------------------------------------
Tabbed by: Egas95
Email: egas1995@gmail.com

Tuning: Standard

e|----------------------------------------------|  ------------|
B|----------------------------------------------|              |
G|----------------------------------------------|              |
D|-------7b-7b-7b-7b-7b-7b-----7--7-------------|              |
A|--------------------------7--0--0--7--7-------|              |
E|--------------------------5--------5--5-------|              |
                                                               |  x2
e|-------------------------------------|                       |
B|-------------------------------------|                       |
G|-------------------------------------|                       |
D|-------7b-7b-7b-7b-----7--7----------|                       |
A|--------------------7--0--0--7-------|                       |
E|--------------------5--------5-------|  ---------------------|

e|---------------------------------------|
B|---------------------------------------|
G|----------7---7--7-9-------------------|
D|-------7----7------------7-x-x-7-------|
A|-------------------------0-x-x-0-------|
E|---------------------------------------|

e|-------------------------------------|
B|-------------------------------------|
G|---------7---7---5-------------------|
D|-------7---7-------7----7----7-------|   x2
A|------------------------0----0-------|
E|-------------------------------------|

e|-----------------------------------|
B|-----------------------------------|
G|---------7---7--9\-----------------|
D|-------7---7----------7----7-------|
A|----------------------0----0-------|
E|-----------------------------------|

e|-------------------------------------------------|  ---------|
B|-------------------------------------------------|           |
G|---------7---5---5-7-7-9hp7----------------------|           |
D|-------7---7---7------------7------7-----7-------|           |
A|-----------------------------------0-----0-------|           |
E|-------------------------------------------------|           |
                                                               |  x2
e|----------------------------------------------|              |
B|----------------------------------------------|              |
G|---------7---5---5-7-7/14\5-------------------|              |
D|-------7---7---7----------------7-----7-------|              |
A|--------------------------------0-----0-------|              |
E|----------------------------------------------|  ------------|

e|-------------------------------------------|
B|-------------------------------------------|
G|-------------------------------------------|
D|-------7-7-7-7-7-7b----7-7--x-7--x-7-------|
A|-------0-0-0-0-0-0-----0-0--x-0--x-0-------|
E|-------------------------------------------|

e|----------------------------------------------|  ------------|
B|----------------------------------------------|              |
G|----------------------------------------------|              |
D|-------7b-7b-7b-7b-7b-7b-----7--7-------------|              |
A|--------------------------7--0--0--7--7-------|              |
E|--------------------------5--------5--5-------|              |
                                                               |  x2
e|-------------------------------------|                       |
B|-------------------------------------|                       |
G|-------------------------------------|                       |
D|-------7b-7b-7b-7b-----7--7----------|                       |
A|--------------------7--0--0--7-------|                       |
E|--------------------5--------5-------|  ---------------------|

e|-----------------------------------------------|
B|-----------------------------------------------|
G|-------7---------------7---------------7-------|
D|-------0---------------0---------------0-------|
A|-----------------------------------------------|
E|-----------------------------------------------|

e|----------------------------------------------------|
B|----------------------------------------------------|
G|-------------------7---5---5------------------------|
D|-------7----7----7---7-------7------7-------7-------|
A|-------0----0-----------------------0-------0-------|
E|----------------------------------------------------|

e|----------------------------------------------|
B|----------------------------------------------|
G|---------7---7---7----5-----------------------|
D|-------7---7---7--------7------7------7-------|
A|-------------------------------0------0-------|
E|----------------------------------------------|

e|--------------------------------------------|
B|--------------------------------------------|
G|-----------------------5--------------------|
D|-------5-7-5-7-5-7-------7-----7----7-------|
A|-------0-0-0-0-0-0-------------0----0-------|
E|--------------------------------------------|

e|-----------------------------------|
B|-----------------------------------|
G|---------7---7--9\-----------------|
D|-------7---7----------7----7-------|
A|----------------------0----0-------|
E|-----------------------------------|

e|----------------------------------------------|
B|----------------------------------------------|
G|---------7---5---5-7-7/14\5-------------------|
D|-------7---7---7----------------7-----7-------|
A|--------------------------------0-----0-------|
E|----------------------------------------------|

e|-------------------------------------------------|
B|-------------------------------------------------|
G|---------7---5---5-7-7-9hp7----------------------|
D|-------7---7---7------------7------7-----7-------|
A|-----------------------------------0-----0-------|
E|-------------------------------------------------|

e|----------------------------------------------|
B|----------------------------------------------|
G|---------7---5---5-7-7/14\5-------------------|
D|-------7---7---7----------------7-----7-------|
A|--------------------------------0-----0-------|
E|----------------------------------------------|

e|-----------------------------------------------------|
B|-----------------------------------------------------|
G|---------7---5---5/7-7/9\7-7p5-----------------------|
D|-------7---7---7---------------7-----7--7--7--7--7---|
A|-------------------------------------0--0--0--0--0---|
E|-----------------------------------------------------|

e|-----------------------|--------------------------|
B|-----------------------|--------------------------| Just repeat the right 
G|-----------------------|--------------------------| line 
D|-------7---7-7-7-------|-------7--7---7-7-7-------|   x6 
A|-------0---0-0-0-------|-------0--0---0-0-0-------|
E|-----------------------|--------------------------|

e|--------------5-5---------|
B|--------------5-5---------|
G|--------------------------|
D|-------7--7-------7-------|
A|-------0--0-------0-------|
E|--------------------------|

e|----------------------------------------------|  ------------|
B|----------------------------------------------|              |
G|----------------------------------------------|              |
D|-------7b-7b-7b-7b-7b-7b-----7--7-------------|              |
A|--------------------------7--0--0--7--7-------|              |
E|--------------------------5--------5--5-------|              |
                                                               |  x2
e|-------------------------------------|                       |
B|-------------------------------------|                       |
G|-------------------------------------|                       |
D|-------7b-7b-7b-7b-----7--7----------|                       |
A|--------------------7--0--0--7-------|                       |
E|--------------------5--------5-------|  ---------------------|

And that's it! If you have any questions about the tabs or feel that 
part of it's not right, don't hesitate to comment or gmail me.

************************************

| /   slide up
| \   slide down
| h   hammer-on
| p   pull-off
| ~   vibrato
| +   harmonic
| x   Mute note
| b   Bend
| pb  Pre-bend
| br  Bend release
| pbr Pre-bend release
| brb Bend release bend

************************************
Tap to rate this tab
 
# A B C D E F G H I J K L M N O P Q R S T U V W X Y Z