Song name
# A B C D E F G H I J K L M N O P Q R S T U V W X Y Z

The Dead Weather - Blue Blood Blues tab

-----------------------------------------------------------------------------
			     Blue Blood Blues - The Dead Weather
-----------------------------------------------------------------------------
Tabbed by: Egas95
Email: egas1995@gmail.com

Tuning: Standard

e|-----------------------------------|
B|-----------------------------------|
G|-----------------------------------|
D|-------2-2--------4-4--4-4-4b------|   x3
A|-------2-2--------4-4--4-4-4b------|
E|-------0-0--------2-2--2-2-2b------|

e|------------------------------------------------------|
B|------------------------------------------------------|
G|------------------------------------------------------|
D|-------2-2--------------------------------------------|
A|-------2-2-------------5-7h-7/9-7-5h7h5h--------------|
E|-------0-0--------5-7h---------------------7-5h-------|

e|-------------0---------------------|
B|-------------0---------------------|
G|-----------------------------------|
D|-------2-2--------4-4--4-4-4b------|   x3
A|-------2-2--------4-4--4-4-4b------|
E|-------0-0--------2-2--2-2-2b------|

e|------------------------------------------------------|  -------|
B|------------------------------------------------------|         |
G|------------------------------------------------------|         |
D|-------2-2--------------------------------------------|         |
A|-------2-2-------------5-7h-7/9-7-5h7h5h--------------|         |
E|-------0-0--------5-7h---------------------7-5h-------|         |
                                                                  | x2
e|-------------0---0-0--0-0--------|                              |
B|-------------0---5-5--5-5b-------|                              |
G|---------------------------------|                              |
D|-------2-2-----------------------|   x3                         |
A|-------2-2-----------------------|                              |
E|-------0-0-----------------------|                      --------|

e|------------------------------------------------------|
B|------------------------------------------------------|
G|------------------------------------------------------|
D|-------2-2--------------------------------------------|
A|-------2-2-------------5-7h-7/9-7-5h7h5h--------------|
E|-------0-0--------5-7h---------------------7-5h-------|

Guitar 1 plays this line:
e|-------------0---------------------|
B|-------------0---------------------|
G|-----------------------------------|
D|-------2-2--------4-4--4-4-4b------|   x3
A|-------2-2--------4-4--4-4-4b------|
E|-------0-0--------2-2--2-2-2b------|

I couldn't tell if this line was a bass, guitar or maybe a keyboard so I wrote it 
as a 2nd guitar and it plays on top of the lead guitar:
e|-----------------------------------------|
B|---------------------------------5-------|
G|-------------------------------7---------|
D|-----------------------------------------|   x3
A|-------------------------5---------------|
E|------------------0-5h7h----7------------|

e|------------------------------------------------------|
B|------------------------------------------------------|
G|------------------------------------------------------|
D|-------2-2--------------------------------------------|
A|-------2-2-------------5-7h-7/9-7-5h7h5h--------------|
E|-------0-0--------5-7h---------------------7-5h-------|

e|-------------0---------------------|
B|-------------0---------------------|
G|-----------------------------------|
D|-------2-2--------4-4--4-4-4b------|   x3
A|-------2-2--------4-4--4-4-4b------|
E|-------0-0--------2-2--2-2-2b------|

e|------------------------------------------------------|
B|------------------------------------------------------|
G|------------------------------------------------------|
D|-------2-2--------------------------------------------|   x5
A|-------2-2-------------5-7h-7/9-7-5h7h5h--------------|
E|-------0-0--------5-7h---------------------7-5h-------|

e|-------------0---0-0--0-0--------|
B|-------------0---5-5--5-5b-------|
G|---------------------------------|
D|-------2-2-----------------------|   x3
A|-------2-2-----------------------|
E|-------0-0-----------------------|

e|------------------------------------------------------|
B|------------------------------------------------------|
G|------------------------------------------------------|
D|-------2-2--------------------------------------------|
A|-------2-2-------------5-7h-7/9-7-5h7h5h--------------|
E|-------0-0--------5-7h---------------------7-5h-------|

e|-------------0---------------------|  --------------------------|
B|-------------0---------------------|                            |
G|-----------------------------------|                            |
D|-------2-2--------4-4--4-4-4b------|   x3                       |
A|-------2-2--------4-4--4-4-4b------|                            |
E|-------0-0--------2-2--2-2-2b------|                            |
                                                                  | x2
e|------------------------------------------------------|         |
B|------------------------------------------------------|         |
G|------------------------------------------------------|         |
D|-------2-2--------------------------------------------|         |
A|-------2-2-------------5-7h-7/9-7-5h7h5h--------------|         |
E|-------0-0--------5-7h---------------------7-5h-------|  -------|

e|------------------------------------------------------|
B|------------------------------------------------------|
G|------------------------------------------------------|
D|-------2-2--------------------------------------------|   x3
A|-------2-2-------------5-7h-7/9-7-5h7h5h--------------|
E|-------0-0--------5-7h---------------------7-5h-------|

e|-------------0---0-0--0-0--------|
B|-------------0---5-5--5-5b-------|
G|---------------------------------|
D|-------2-2-----------------------|   x3
A|-------2-2-----------------------|
E|-------0-0-----------------------|

e|------------------------------------------------------|
B|------------------------------------------------------|
G|------------------------------------------------------|
D|-------2-2--------------------------------------------|
A|-------2-2-------------5-7h-7/9-7-5h7h5h--------------|
E|-------0-0--------5-7h---------------------7-5h-------|

Guitar 1 plays this line:
e|-------------0---0-0--0-0--------|
B|-------------0---5-5--5-5b-------|
G|---------------------------------|
D|-------2-2-----------------------|   x3
A|-------2-2-----------------------|
E|-------0-0-----------------------|

I couldn't tell if this line was a bass, guitar or maybe a keyboard so I (again) 
wrote it as a 2nd guitar and it plays on top of the lead guitar:
e|-----------------------------------------|
B|-------------------------------5---------|
G|------------------------------7----------|
D|-----------------------------------------|   x3
A|-------------------------5---------------|
E|------------------0-5h7h----7------------|

e|------------------------------------------------------|
B|------------------------------------------------------|
G|------------------------------------------------------|
D|-------2-2--------------------------------------------|
A|-------2-2-------------5-7h-7/9-7-5h7h5h--------------|
E|-------0-0--------5-7h---------------------7-5h-------|

e|-------------0---------------------|
B|-------------0---------------------|
G|-----------------------------------|
D|-------2-2--------4-4--4-4-4b------|
A|-------2-2--------4-4--4-4-4b------|
E|-------0-0--------2-2--2-2-2b------|

e|-----------------------------------|
B|-----------------------------------|
G|-----------------------------------|
D|-------2-2--------4-4--4-4-4b------|   x2
A|-------2-2--------4-4--4-4-4b------|
E|-------0-0--------2-2--2-2-2b------|

e|------------------------------------------------------|
B|------------------------------------------------------|
G|------------------------------------------------------|
D|-------2-2--------------------------------------------|
A|-------2-2-------------5-7h-7/9-7-5h7h5h--------------|
E|-------0-0--------5-7h---------------------7-5h-------|

e|-------------0---------------------|
B|-------------0---------------------|
G|-----------------------------------|
D|-------2-2--------4-4--4-4-4b------|   x3
A|-------2-2--------4-4--4-4-4b------|
E|-------0-0--------2-2--2-2-2b------|

e|------------------------------------------------------|
B|------------------------------------------------------|
G|------------------------------------------------------|
D|-------2-2--------------------------------------------|   x6
A|-------2-2-------------5-7h-7/9-7-5h7h5h--------------|
E|-------0-0--------5-7h---------------------7-5h-------|

e|-------------0---0-0--0-0--------|
B|-------------0---5-5--5-5b-------|
G|---------------------------------|
D|-------2-2-----------------------|
A|-------2-2-----------------------|
E|-------0-0-----------------------|

e|---------------0-0--0-0--------|
B|---------------5-5--5-5b-------|
G|-------------------------------|
D|-------2-2---------------------|   x2
A|-------2-2---------------------|
E|-------0-0---------------------|

e|-----------------|
B|-----------------|
G|-----------------|
D|-------2-2-------|
A|-------2-2-------|
E|-------0-0-------|

e|---------------0-0--0-0--------|
B|---------------5-5--5-5b-------|
G|-------------------------------|
D|-------2-2---------------------|   x3
A|-------2-2---------------------|
E|-------0-0---------------------|

e|-----------------|
B|-----------------|
G|-----------------|
D|-------2-2-------|
A|-------2-2-------|
E|-------0-0-------|

Guitar 1 plays this line:
e|-------------0---0-0--0-0--------|
B|-------------0---5-5--5-5b-------|
G|---------------------------------|
D|-------2-2-----------------------|
A|-------2-2-----------------------|
E|-------0-0-----------------------|

I couldn't tell if this line was a bass, guitar or maybe a keyboard so I (again) 
wrote it as a 2nd guitar and it plays on top of the lead guitar:
e|-----------------------------------------|
B|-------------------------------5---------|
G|------------------------------7----------|
D|-----------------------------------------|
A|-------------------------5---------------|
E|------------------0-5h7h----7------------|

And that's it! If you see something that you think should be changed or have a 
question, please don't hesitate to comment or email me. Have fun!
************************************

| /   slide up
| \   slide down
| h   hammer-on
| p   pull-off
| ~   vibrato
| +   harmonic
| x   Mute note
| b   Bend
| pb  Pre-bend
| br  Bend release
| pbr Pre-bend release
| brb Bend release bend

************************************
Tap to rate this tab
 
# A B C D E F G H I J K L M N O P Q R S T U V W X Y Z