Song name
# A B C D E F G H I J K L M N O P Q R S T U V W X Y Z

The Dead Weather - Hang You From The Heavens tab

-----------------------|
-----------------------|
-----------------------|
-----------------------|
-----------------------|
-0---3---0---3---0---3-|

-----------------------|
-----------------------|
---------4---5-5-------|
-7-7-7\--4-4-5-5-5-4-2-|
-7-7-7\--6-4-3-3-5-4-2-|
-5-5-5\----6-----3-2-0-|

-------------------------|
-------------------------|
-------------------------|
---------------------17b-|
-17--17-------17--17-----|
-15--17--16b--15--17-----|

--------12-|
--------17-|
-----------|
-2-2-2-----|
-2-2-2-----|
-0-0-0-----|

b = bend note
\ = slide down
Tap to rate this tab
 
# A B C D E F G H I J K L M N O P Q R S T U V W X Y Z