Song name
# A B C D E F G H I J K L M N O P Q R S T U V W X Y Z

The Dead Weather - Rolling In On A Burning Tire tab

-------------------------------------------------------------------------------  
Rolling in on a Burning Tire - The Dead Weather                       
-------------------------------------------------------------------------------

Tuning:standard

Intro & Verses

e|---------------------------------------------------------------------------|
B|---------------------------------------------------------------------------|
G|---------------------------------------------------------------------------|
D|-2-0-------------------------------2-0-----------------------2-------------|
A|-----2---0-2-3---3-3-2-0-2-------------2---0-2-3---3-3-2-0-2---------------|
E|---------------------------0-----------------------------------------------|

Chorus

e|---------------------------------------------------------------------------|
B|---------------------------------------------------------------------------|
G|---------------------------------------------------------------------------|Repeat (x3)
D|---------------------------------------------------------------------------|
A|-0-2-3---3-3-2-0-2---------------------------------------------------------|
E|-------------------0-------------------------------------------------------|


  End of chorus

e|---------------------------------------------------------------------------|
B|---------------------------------------------------------------------------|
G|---------------------------------------------------------------------------|
D|-----------------2---------------------------------------------------------|
A|-2-2---0-------------------------------------------------------------------|
E|---------3---2-0-----------------------------------------------------------|

   Bridge

e|---------------------------------------------------------------------------|
B|---------------------------------------------------------------------------|
G|---------------------------------------------------------------------------|Repeat (x2)
D|---------------------------------------------------------------------------|
A|-0-2---0-2---0-3---0-3---0-2---0-2-----------------------------------------|
E|---------------------------------------------------------------------------|

Tap to rate this tab
 
# A B C D E F G H I J K L M N O P Q R S T U V W X Y Z