The Dead Weather - 60 Feet Tall tab

E---------------------------------|
B---------------------------------|
G---------------------------------|
D----------3h5--3-------10h12-----|
A---4/5----5----5---/12--------8b-|
E---------------------------------|

E---------------------------------|
B---------------------------------|
G---------------------------------|
D----------3h5--3-------10h12-----|
A---4/5----5----5---/12--------8b-|
E---------------------------------|
Tap to rate this tab
 
# A B C D E F G H I J K L M N O P Q R S T U V W X Y Z