Song name
# A B C D E F G H I J K L M N O P Q R S T U V W X Y Z

The Dead Weather - I Cant Hear You tab

There's a very similar version on here but I can't live with it up on the high strings.
This is how I play it on my Strat with my amp's bass turned to the max.

Verse
e|--------------------------------------------------------------------|
B|--------------------------------------------------------------------|
G|--------------------------------------------------------------------|
D|-----------------------5-3-------------------------------5-3--------|
A|---------3-5~------3-------5-3-------------3-5~------3-------5-3----|
E|---3-3-6-------3-6-------------6~----3-3-6-------3-6-------------6~-|

This little bit is thrown in there around 0:39 over the main verse.

e|--5h7p5------------7p5---|
B|--------8--------------8-|
G|-------------0h3---------|
D|-------------------------|
A|-------------------------|
E|-------------------------|


Small Solo Part at 0:53

e|9s8---3s6-3--3-3-1-3---3-3-1-3---3s6-3--3-3-1-3---7p5---7p5------|
B|------------------------------------------------------8-----8----|
G|------------------------------3----------------------------------|
D|-----------------------------------------------------------------|
A|-----------------------------------------------------------------|
E|-----------------------------------------------------------------|

Small Solo Part at 1:29

e|7p5----5h7p5-----3s6-3--3-3-1-3---9s8---3-3-1-3---3s6-3--3-3-1-3-|
B|----8--------8---------------------------------------------------|
G|-----------------------------------------------------------------|
D|-----------------------------------------------------------------|
A|-----------------------------------------------------------------|
E|-----------------------------------------------------------------|

e|-3p1h3p1----|
B|------------|
G|---------3--|
D|------------|
A|------------|
E|------------|


Something along those lines.
Tap to rate this tab
 
# A B C D E F G H I J K L M N O P Q R S T U V W X Y Z