Song name
# A B C D E F G H I J K L M N O P Q R S T U V W X Y Z

The Dead Weather - New Pony tab

-----------------------------------------------------------------------------
			     New Pony - The Dead Weather
-----------------------------------------------------------------------------

Tabbed by: Adam Astro
Tuning:Standard
Please Rate,Also Leave Any Comments. Would Love to Hear Any Feedback.Enjoy!!!




e|--------------------------------------------------------------------------|
B|--------------------------------------------------------------------------|
G|--------------------------------------------------------------------------|
D|---7----------------------------------------7-----------------------------|
A|---7----------------------------------------7-----------------------------|
E|---5----------------------------------------5-----------------------------|

    1,2,3,4

e|--------------------------------------------------------------------------|
B|--------------------------------------------------------------------------|
G|--------------------------------------------------------------------------|
D|---7--7-----7-----------------7--7-----7----------------------------------|
A|---7--7-----7----7/12---------7--7-----7----7/12--------------------------|
E|---5--5--8--5-----------------5--5--8--5----------------------------------|


                        X2
e|---------------------------------------------------------------------------|
B|---------------------------------------------------------------------------|
G|---------------------------------------------------------------------------|
D|---7--7-------------7--7-----------------7--7---------------7--7-----------|
A|---7--7-------------7--7-----------------7--7---------------7--7-----------|
E|---5--5-------------5--5-----------------5--5---------------5--5-----------|

    Hold Second Chord And Wait For Change
e|---------------------------------------------------------------------------|
B|---------------------------------------------------------------------------|
G|---------------------------------------------------------------------------|
D|---2-----------2-----------------------------------------------------------|
A|---2-----------2-----------------------------------------------------------|
E|---0-----------0-----------------------------------------------------------|

e|--------------------------------------------------------------------------|
B|--------------------------------------------------------------------------|
G|--------------------------------------------------------------------------|
D|---7--7-----7-------------------------------------------------------------|
A|---7--7-----7----7/12-----------------------------------------------------|
E|---5--5--8--5-------------------------------------------------------------|

                        X2
e|---------------------------------------------------------------------------|
B|---------------------------------------------------------------------------|
G|---------------------------------------------------------------------------|
D|---7--7-------------7--7-----------------7--7---------------7--7-----------|
A|---7--7-------------7--7-----------------7--7---------------7--7-----------|
E|---5--5-------------5--5-----------------5--5---------------5--5-----------|

    Let Open E String Ring While Playing Pre Intro Lick
e|----------------------------------------------------------------------------|
B|----------------------------------------------------------------------------|
G|-----------------------------------7h9--------------------------------------|
D|---2-------------------------8h9------------7b7b7b7\------------------------|
A|---2------------------------------------------------------------------------|
E|---0------------------------------------------------------------------------|


    Solo
e|--------------------------------------------------------------------------|
B|--------------------------------------------------------------------------|
G|-------------------------------------------------14-12--------------------|
D|---------12b-10~--------------------10h12p10-----------14-12b-12-10~------|
A|--12-12-------------10-12-10--12-12----------12---------------------------|
E|--------------------------------------------------------------------------|

e|--------------------------------------------------------------------------|
B|--------------------13-13-13-13/15-13-------------------------------------|
G|--------------------12-12-12-12/14-12-------------------------------------|
D|---------12b-10~----------------------14-12-10-------10-12-10~------------|
A|--12-12----------------------------------------12~------------------------|
E|--------------------------------------------------------------------------|


e|----------------------------------------------------------------------------|
B|--------------------------------------15p13----15p13----15-15b-13b~---------|
G|--12-------------12-14-12----12-14/--------14-------14----------------------|
D|-----12-10-12/14----------14------------------------------------------------|
A|----------------------------------------------------------------------------|
E|----------------------------------------------------------------------------|

e|----------------------------------------------------15---------------------|
B|---------------------------------------------13-15b----15-13h15p13---------|
G|--14-12-14-14-14b-12-12---------12/14-14---14----------------------h15-15--|
D|------------------------12/14-14-------------------------------------------|
A|---------------------------------------------------------------------------|
E|---------------------------------------------------------------------------|

e|--------------------------------------------------------------------------|
B|--------------------------------------------------------------------------|
G|-----------12b-----12b----9~-12p9--12p9---9-------------------------------|
D|-----10-12b----12b-----12--------12----12---12-10-12-10----10-------------|
A|--12----------------------------------------------------12----12-10b------|
E|--------------------------------------------------------------------------|

     Solo Ending-Let Open E Ring While Playing
e|---------------------------------------------------------------------------|
B|---------------------------------------------------------------------------|
G|---------------------------------------------------------------------------|
D|----------------14-14-12-----------12b-----12b-----------------------------|
A|----12b----12b-----------12-10-12b-----12b-----12\-------------------------|
E|--0-0----------------------------------------------------------------------|

e|--------------------------------------------------------------------------|
B|--------------------------------------------------------------------------|
G|--------------------------------------------------------------------------|
D|---7--7-----7-----------------7--7-----7----------------------------------|
A|---7--7-----7----7/12---------7--7-----7----7/12--------------------------|
E|---5--5--8--5-----------------5--5--8--5----------------------------------|

  Everybody Say You're Using Voodoo I've Seen You're Feet Walk By Themselves

e|---------------------------------------------------------------------------|
B|---------------------------------------------------------------------------|
G|----------------------7b--5b-----------------------------------------------|
D|---2-----2-2-2-2-----------------------------------------------------------|
A|---2-----2-2-0-0-----------------------------------------------------------|
E|---0-----0-0-0-0-----------------------------------------------------------|

e|--------------------------------------------------------------------------|
B|--------------------------------------------------------------------------|
G|--------------------------------------------------------------------------|
D|---7--7-----7-----------------7--7-----7----------------------------------|
A|---7--7-----7----7/12---------7--7-----7----7/12--------------------------|
E|---5--5--8--5-----------------5--5--8--5----------------------------------|

    Play Same Chords But Muted Between These
e|---------------------------------------------------------------------------|
B|---------------------------------------------------------------------------|
G|---------------------------------------------------------------------------|
D|---7--7-------------7--7-----------------7--7------------------------------|
A|---7--7-------------7--7-----------------7--7------------------------------|
E|---5--5-------------5--5-----------------5--5------------------------------|

e|--------------------------------------------------------------------------|
B|--------------------------------------------------------------------------|
G|--------------------------------------------------------------------------|
D|---7--7-----7-------------------------------------------------------------|
A|---7--7-----7----7/12-----------------------------------------------------|
E|---5--5--8--5-------------------------------------------------------------|

     x2
e|---------------------------------------------------------------------------|
B|---------------------------------------------------------------------------|
G|---------------------------------------------------------------------------|
D|---7--7-------------7--7---------7--7-----7-------7--7-----7---------------|
A|---7--7-------------7--7---------7--7-----7-------7--7-----7---------------|
E|---5--5-------------5--5---------5--5--8--5-------5--5--8--5---------------|

e|---------------------------------------------------------------------------|
B|---------------------------------------------------------------------------|
G|---------------------------------------------------------------------------|
D|---2------2----------------------------------------------------------------|
A|---2------2----------------------------------------------------------------|
E|---0------0----------------------------------------------------------------|

     X3
e|--------------------------------------------------------------------------|
B|--------------------------------------------------------------------------|
G|--------------------------------------------------------------------------|
D|---7--7-----7-----------------7--7-----7----------------------------------|
A|---7--7-----7----7/12---------7--7-----7----7/12--------------------------|
E|---5--5--8--5-----------------5--5--8--5----------------------------------|

     First Chord Is Pre Drum Solo And Last Chord Is The End
e|---------------------------------------------------------------------------|
B|---------------------------------------------------------------------------|
G|---------------------------------------------------------------------------|
D|---7--------------7\-------------------------------------------------------|
A|---7--------------7\-------------------------------------------------------|
E|---5--------------5\-------------------------------------------------------|



************************************

| /   slide up
| \   slide down
| h   hammer-on
| p   pull-off
| ~   vibrato
| +   harmonic
| x   Mute note
| b   Bend
| pb  Pre-bend
| br  Bend release
| pbr Pre-bend release
| brb Bend release bend

************************************
Tap to rate this tab
 
# A B C D E F G H I J K L M N O P Q R S T U V W X Y Z