Song name
# A B C D E F G H I J K L M N O P Q R S T U V W X Y Z

The Dead Weather - I Cant Hear You tab

-----------------------------------------------------------------------------
                  I Can't Hear You  - The Dead Weather
-----------------------------------------------------------------------------
Tabbed by: DeJaYxB
E-mail:Dejayxb@ymail.com

CAPO Compatible scoll down for capo version

Tuning: Standard

  -----------Wah-Wah------------
e|------------------------------|
B|------------------------------|
G|------------------------------|  X6  
D|-------------------5-3--------|
A|-------3-5-----3-------5-3----|
E|-3-3-6-----3-6---3---------6--|
   * * * * * * * * * * * * * *

e|-----------------------------------------|
B|-----------------------------------------|
G|-3------------------3--------------------| instant restart ^^
D|---5-55-3-5--55-3-5---5-55-3-5-5-3-------|
A|-----------------------------------5-3---|
E|---------------------------------------3-|

    ************************************
           | *   Palm Mute
           | /   slide up
           | \   slide down
           | h   hammer-on
           | p   pull-off
           | ~   vibrato
           | +   harmonic
           | x   Mute note
           | b   Bend
           | pb  Pre-bend
           | br  Bend release
           | pbr Pre-bend release
           | brb Bend release bend

    ************************************




         *CAPO Version*
       *Lock on 3rd fret*

e|-----------------------------|
B|-----------------------------|
G|-----------------------------| X6
D|-------------------5-0-------|
A|-------0-5-----0-------5-0---|
E|-0-0-6-----0-6---0---------6-|
   * * * * * * * * * * * * * *

e|-----------------------------------------|
B|-----------------------------------------|
G|-0-----------------0---------------------|instant restart ^^
D|---5-55-0-5-55-0-5---5-55-0-5--5-0-------|
A|-----------------------------------5-0---|
E|---------------------------------------0-|

this is the whole song hope you enjoy
Tap to rate this tab
 
# A B C D E F G H I J K L M N O P Q R S T U V W X Y Z