Song name
# A B C D E F G H I J K L M N O P Q R S T U V W X Y Z

The Deadfly Ensemble - The Flight Of The Invisible Siamese Three-year-olds tab

Artist:         The Deadfly Ensemble
Websites:       http://www.thedeadflyensemble.com
                http://www.myspace.com/thedeadflyensemble

Song:           Flight of the Invisible Siamese Three-Year-Olds
Album:          An Entire Wardrobe of Doubt and Uncertainty
Label:          Trisol

Tabbed by:      Stefan HBTS (BLdRED)
Web:            http://www.youtube.com/user/bldred
Date:           March 1st 2011

Tuning:         EADGBE (regular)


. = palm mute
/ = slide
h = hammer on
p = pull off
~ = let ring


Intro 1x
E|-----------------------|
B|-----------------------|
G|-2-2-2-3-3-3-3/5-5-5-2-|
D|-0-0-0-0-0-0-0-0-0-0-0-|
A|-----------------------|
E|-----------------------|


Verse 2x
E|--------------------------------------------------------------------|
B|--------------------------------------------------------------------|
G|-2-2-2-2-2-3-2------------------------------------------5-5-3-2h3p2-|
D|---------------3-2-2h3p2------3---0-0-0-----0---0-2-2-2-------------|
A|-------------------------3--3---3-------0-0---0---------------------|
E|--------------------------------------------------------------------|

E|--------------------------------------------------------------------|
B|--------------------------------------------------------------------|
G|-2-2-2-2-2-3-2------------------------------------------5-5-3-2-3---|
D|---------------3-2-2h3p2------3---0-0-0-----0---0-2-2-2-------------|
A|-------------------------3--3---3-------0-0---0---------------------|
E|--------------------------------------------------------------------|


Chorus 1x
E|--------------------------------------------------------------------|
B|--------------------------------------------------------------------|
G|-2-2-2-2-2-2-2-2----2---4---4------2-----2--------------------------|
D|------------------3---3---3---3--0---0-3---3-3/5-5-5-3-2-2-2h3p2----|
A|--------------------------------------------------------------------|
E|--------------------------------------------------------------------|

E|--------------------------------------------------------------------|
B|--------------------------------------------------------------------|
G|-2-----2---2---2----2---4---4------2-----2--------------------------|
D|---0-0---0---0----3---3---3---3--0---0-3---3-3/5-5-5-3-2-2-2h3p2----|
A|--------------------------------------------------------------------|
E|--------------------------------------------------------------------|

E|--------------------------------------------------------------------|
B|--------------------------------------------------------------------|
G|-2-----2-----2------2---4---4------2-----2--------------------------|
D|---0-0---0-0---0--3---3---3---3--0---0-3---3-3/5-5-5-3-2-2-2h3p2----|
A|--------------------------------------------------------------------|
E|--------------------------------------------------------------------|


repeat: Verse 1,5x - Chorus 1x - Verse 1,5x
then continue with:


Bridge part A 3x
E|--------------------------------------------------------------------|
B|--------------------3-3-3-3-3---------------------------------------|
G|-2-2-2-2--2-2-2-2H3-3-3-3-3-3-3-2-----7---7-3---2-----7---7-3---2---|
D|----------------------------------0-0---0-----0---0-0---0-----0-----|
A|--------------------------------------------------------------------|
E|--------------------------------------------------------------------|


Bridge part 2 1x
E|--------------------------------------------------------------------|
B|--------------------3-3-3-3-3---------------------------------------|
G|-2-2-2-2--2-2-2-2H3-3-3-3-3-3-3-2-----7---7-3---2-----7---7-3---2-2~|
D|----------------------------------0-0---0-----0---0-0---0-----0---0~|
A|--------------------------------------------------------------------|
E|--------------------------------------------------------------------|


End 4x
E|--------------------------------------------------------------------|
B|--------------------------------------------------------------------|
G|-----5---6---5-------5---6-8-6---------6/8-8-----------8---7-7-7----|
D|-7-7---7---7---5-7-7---7-------7/10-10-------10-10-9-9---9-9-9-9----|
A|--------------------------------------------------------------------|
E|--------------------------------------------------------------------|

END
Tap to rate this tab
 
# A B C D E F G H I J K L M N O P Q R S T U V W X Y Z