Song name
# A B C D E F G H I J K L M N O P Q R S T U V W X Y Z

The Deadlights - Amplifier tab

http://www.geocities.com/deadlts/

TUNING: drop d (D-A-D-G-B-E)


     INTRO:

     Guitar 1

    -------------------------------------------------------------        ------|
    ------------------------------------------------------------- repeat ------|
    ------------------------------------------------------------- and    ------|
    ------------------------------------------------------------- end    ------|
    -------1----1--------1-----1--------1-----1--------1-----1--- with   --~---|
    -000-2---0-2---000-2---0-2----000-2---0-2----000-2---0-2-----        --6---|

     Guitar 2 (with chorus)

    -------------------------------------------        ------|
    --15----15----15-16---15----15----15-16----        ------|
    -----14----14------------15----14---------- repeat ------|
    ------------------------------------------- a      -15\--|
    ------------------------------------------- few    -14\--|
    -------------------------------------------        ------|

     HEAVY PART:

    -------------------------|
    -------------------------|
    -------------------------|
    --6-0-0-0-35---6-0-0-0---|
    --6-0-0-0-35---6-0-0-0---|
    --6-0-0-0-35---6-0-0-0---|

     VERSE:

    ------------|
    ------------|
    ------------|
    ---13-12----|
    ------------|
    ------------|

     PRE-CHORUS:

    -------------------------------------------------------------------------|
    -------------------------------------------------------------------------|
    -------------------------------------------------------------------------|
    --43-43-43-43-30---43-43-43-43-000---------------------------------------|
    --43-43-43-43-30---43-43-43-43-000---------------------------------------|
    --43-43-43-43-30---43-43-43-43-000---------------------------------------|

     CHORUS:

    -------------------------------------------------------------------------|
    -------------------------------------------------------------------------|
    -------------------------------------------------------------------------|
    --10h1212-1210h1212-10-12--3333-666-5-6----------------------------------|
    --10h1212-1210h1212-10-12--3333-666-5-6----------------------------------|
    --10h1212-1210h1212-10-12--3333-666-5-6----------------------------------|
      ^^^^^10's and 12's^^^^^

     BRIDGE:

    --------------------------|
    ---11---------11-----10---|
    --------------------------|  a couple times
    --------------------------|
    --------------------------|

    ----------------------------------------------------------------------------|
    ----------------------------------------------------------------------------|
    -----7-8-----7-8-----8-----5-7-----5-7-----7-----7-8-----7-8-----8-----5-7--|
    -----7-8-----7-8-----8-----5-7-----5-7-----7-----7-8-----7-8-----8-----5-7--|
    -----5-6-----5-6-----6-----3-5-----3-5-----5-----5-6-----5-6-----6-----3-5--|
    --00------00------00----00------00------00----00------00------00----00------|

    ----------------------------------------------------------------------------|
    ----------------------------------------------------------------------------|
    -----5-7-----7-----8-8----8-8----8----7-7----7-7----7----8-8----8-8----8----|
    -----5-7-----7-----8-8----8-8----8----7-7----7-7----7----8-8----8-8----8----|
    -----3-5-----5-----6-6----6-6----6----5-5----5-5----5----6-6----6-6----6----|
    --00------00----00-----00-----00---00-----00-----00---00-----00-----00------|

    ----------------------------------------------------------------------------|
    ----------------------------------------------------------------------------|
    ----7-7----7-7----7---------------------------------------------------------|
    ----7-7----7-7----7---------------------------------------------------------|
    ----5-5----5-5----5---------------------------------------------------------|
    -00-----00-----00-----------------------------------------------------------|
Tap to rate this tab
# A B C D E F G H I J K L M N O P Q R S T U V W X Y Z