Song name
# A B C D E F G H I J K L M N O P Q R S T U V W X Y Z

The Deadly Snakes - Debt Collection tab

Artist: The Deadly Snakes
Song: Debt Collection
Album: Porcella

This a great song from an amazing album by a fantastic band. If anyone can nail the rest 
the song, please post it.

                               "I Was Pouring over Papers In..."
E]-2-2--5-7--2-2--5-7--2-2--5-7---(Repeat Riff)------|
A]-4-4-----------------------------------------------|
D]-4-4-----------------------------------------------|
G]-----------------------------(Organ Entrance)------|
B]---------------------------------------------------|
e]---------------------------------------------------|

  "For It Had Been..."
E]-------------0--0--|
A]----------------2--|
D]----------------2--|
G]----------------1--|
B]-------------------|
e]-------------------|


I know that that riff repeats throughout but I'm also pretty sure there's more to it as 
song progresses.
Tap to rate this tab
 
# A B C D E F G H I J K L M N O P Q R S T U V W X Y Z