Song name
# A B C D E F G H I J K L M N O P Q R S T U V W X Y Z

The Deadly Syndrome - Eucalyptus tab

e|-------------------------------------------------------------------|
B|-------------------------------------------------------------------|
G|-------8---11------------------------------------------------------|
D|---9-----------9---8h9p8-------8-------8---9---8---9---8---9---8---|X6
A|---------------------------9-------7-------------------------------|
E|-------------------------------------------------------------------|



e|----------------------------------------|
B|----------------------------------------|
G|------------9-9-------------------------|
D|--9-9-------9-9-------------------------|X4
A|--9-9-------7-7-------------------------|
E|--7-7-----------------------------------|



http://thedeadlysyndrome.com/
Tap to rate this tab
# A B C D E F G H I J K L M N O P Q R S T U V W X Y Z