Song name
# A B C D E F G H I J K L M N O P Q R S T U V W X Y Z

The Deadly Syndrome - This Old Home chords

Highlighted       Show chord diagrams
-------------------------------------------------------------------------------
			     This Old Home - The Deadly Syndrome
-------------------------------------------------------------------------------
Tabbed by:me
Email:roberto113@msn.com

Tuning:Standard
  Hold C down for the intro/verse
e|-----------------------------------| x4
B|--1-1-0-1-0-1----1-----------------|
G|--0--------------0-----------------|
D|--2--------------2-2-0-2-0-2-------|
A|-3--------------3------------------|
E|-----------------------------------|



[Intro]
[This old home
Won't let me out]

Em  C        F  
People come and
Em  C               F
Some children leave
Em  C             F
This hole is deepening
Em      C
It's going to swallow me

[I'm just like
Just like the mites
Their plot's the same as
The same as mine
Tearing down this house
One piece at a time
Where there is]

Em  C        F
 nothing left
Em  C                F
But small town charm
Em    C           F        Em
There's really nothing left
C                  F
And it seems so far
Em  C              F
 Dust gathers round us
Em  C                       Em
 This house was built to fall
C              F
I'll be your compass
Em     C                      F   
 If you'll be my wrecking ball
Em, C, F... 
C              Am Em G
Come back home...
C           Am Em G
Come back home...
C           (Am Em G)x2
Come back home...
C           (Am Em G)x2
Come back home...
C           (Am Em G)x2
Come back home...
Am Em G       
Come back home...
Am Em G
Come back home...

Come back home...
(repeat Am, Em, G until the end of the song)
(I'll never go)
Come back home...
(I'll never go)
Come back home...

(I'll never go)
Come back home...
(back home)
Come back home...	

End with the intro 
e|-----------------------------------| 
B|--1-1-0-1-0-1----1-----------------|
G|--0--------------0-----------------|
D|--2--------------2-2-0-2-0-2-------|
A|-3--------------3-------------3----|
E|-----------------------------------|
Tap to rate this tab
# A B C D E F G H I J K L M N O P Q R S T U V W X Y Z