Song name
# A B C D E F G H I J K L M N O P Q R S T U V W X Y Z

The Deadly Syndrome - I Hope I Become A Ghost tab

-------------------------------------------------------------------------------
	         I Hope I Become A Ghost - The Deadly Syndrome
-------------------------------------------------------------------------------
Tabbed by:Vinceidon

Tuning: Standard
        Capo on 1

e|-------------------------3-3--2-3------------------------------------------|
B|-------------3----3------3-3--3-3------------------------------------------|
G|-------------4----4--------------------------------------------------------|
D|----------------------0----------------------------------------------------|
A|-------0--2----2----2------------------------------------------------------|
E|----2----------------------------------------------------------------------|

And repeat...
Tap to rate this tab
# A B C D E F G H I J K L M N O P Q R S T U V W X Y Z