Song name
# A B C D E F G H I J K L M N O P Q R S T U V W X Y Z

The Dear Hunter - City Escape tab

Band: The Dear Hunter
Song: City Escape

Tunning: Standard

e|--------------------------------------------------------------------------------|
B|--------------------------------------------------------------------------------|
G|--------------------------------------------------------------------------------|
D|--------3------------3------5-5-5-3----------3------------3-----5-5-7-7-5-3-----|
A|--4--0-----5---4--0-----5-----------5--4--0-----5---4--0-----5--------------5---|
E|--------------------------------------------------------------------------------|

e|--------------------------------------------------------------------------------|
B|--------------------------------------------------------------------------------|
G|--------------------------------------------------------------------------------|
D|--------3------------3------5-5-5-3----------3------------3-----2-2-2-2---------|
A|--4--0-----5---4--0-----5-----------5--4--0-----5---4--0-----5------------------|
E|--------------------------------------------------------------------------------|

fast picking

e|--12///0---------9///-------------------|
B|---------------------3------------------|
G|----------------------------------------|
D|----------------------------------------|
A|----------------------------------------|
E|----------------------------------------|
;


maybe i'm adding some extra notes but it doesn't sound way off... anyway, it's open to 
and continuity...
Tap to rate this tab
 
# A B C D E F G H I J K L M N O P Q R S T U V W X Y Z