Guitaretab - guitar tabs
Song name
# A B C D E F G H I J K L M N O P Q R S T U V W X Y Z

The Dear Hunter - The Lake South tab

-------------------------------------------------------------------------------
The Lake South  The Dear Hunter
-------------------------------------------------------------------------------
Tabbed by: Tyler Gjersee
Email: Gjersee@hotmail.com

Tuning: Standard

These are the main parts but there are a lot of harmonies that mix in. If
you figure them out, comment or e-mail me. Have fun. I tried to guess the
instruments to the best of my ability. Have fun.

Baritone Part: Goes through the entire song (piano plays this with a different rhythm later)
e|----------------------------------------------------------------------------------|
B|----------------------------------------------------------------------------------|
G|----------------------------------------------------------------------------------|
D|----------------------------------------------------------------------------------|
A|---12-12----12-12----12-12----12-12----12-14-12----12-14-12----12-14-12---12-14-12|
E|10-------10-------10-------10-------10----------10----------10----------10--------|

[ Tab from: http://www.guitaretab.com/t/the-dear-hunter/184333.html ]
Part played by a bunch of instruments
e|---------------------------------------------------------------------------|
B|---------------------------------------------------------------------------|
G|9--------7--------6--------7--------9-----------7-----------6-----------7--|
D|---------------------------------------------------------------------------|
A|---------------------------------------------------------------------------|
E|---------------------------------------------------------------------------|

Horn Part (Played on multiple octaves)
e|---------------------------------------------------------------------------|
B|---------------------------------------------------------------------------|
G|---------------------------------------------------------------------------|
D|------------------12-------9--------------------------------14----------9--|
A|10-------12-------------------------10----------12-------------------------|
E|---------------------------------------------------------------------------|



| /  slide up
| \  slide down
| h  hammer-on
| p  pull-off
| ~  vibrato
| +  harmonic
| x  Mute note
===============================================================================
Related for The Lake South tab